A+
A (Guitar tab)

E:----------------------------------------------------------------------------------------------
B:----------------------------------------------------------------------------------------------
G:----------------------------------------------------------------------------------------------
D:----------9----------7---------6---------7----------9-----------7---------6---------7-----
A:------11---11----9----9---7----7----9----9---11----11----9----9---7----7----9--------
E:----0-----------0---------0---------0---------0------------0---------0---------0-----------

E:----------------------0------------------------------------------------------------------------
B:------------------------0----------------------------------------------------------------------
G:------------4----------------------------------------------------------------------------------
D:---------4----4---4---------------------------------------------------------------------------
A:------2---------0------------------------------------------------------------ -----------------
E:------------------------------------------------------------------------------------------------

Copyrights
Author: ?
Composer: ?
Publisher: ?

Reactions

CommonCrawl [Bot]

Follow Muzikum