Bryan Adams

Bryan Adams
Every Thing I Do Ver 2 (Guitar tab)

Artist: Bryan Adams
Song: Every Thing I do, guitar solo
Tuning: E,A,D,G,B,E

Key:
P: pull off
H: hammer on
^: Bend
~: Vibrate

First Comes in with piano
Solo

E----------------------------------------------------|
B----------------------------------------------------|
G-7-~h9--p9-7----------~7----------------9-h12-------|
D-------------10-7-~10---------7-h10-~10-------10-10-|
A----------------------------------------------------|
E----------------------------------------------------|

E-------------8--------------------------------------|
B-^8hold-(10)---10-10-8-10-8-10----------------------|
G-------------------------------7-h9--9-9-9-7-5------|
D----------------------------------------------------|
A----------------------------------------------------|
E----------------------------------------------------|

OptimusPrime

Submitted by OptimusPrime at Sun 01 Dec, 2002 8:28 am

Author: ?
Composer: ?
Publisher: ?
Language: English

Reactions

CommonCrawl [Bot]

Follow Muzikum