Bryan Adams

Bryan Adams
Here I Am (Guitar tab)

Here I Am



--------------------------------------------------------------------------------

Capo 1st fret! (so D = D#; but for tab 3 = 3 still, so 1 = open string)
Intro riff: (let ring where possible)

x3
E--------------6-----------3----------3--1------------|-----------3---------6----------------------------------------
B----------4-----------4----------1---------4--3--1--|--------4---------4-------------------------------------------
G-------5----------5----------------------------------|-----1--------1--------------------------------------------------
D------------------------------1----------------------|--------------------------------------------------------------------
A---3------------------------------------1------------|-------------------------------------------------------------------
E--------------4---------------------------------------|--1----------------------4---------------------------------------

Verse 1:
D A
Here I am - this is me
G D
There's no where else on earth I'd rather be
G D
Here I am - it's just me and you
C A
And tonight we make our dreams come true

Chorus:
Bm G D A
It's a new world - it's a new start
Bm G D A
It's alive with the beating of young hearts
Bm G D A
It's a new day - it's a new plan
Em
I've been waiting for you
G
Here I am

Riff:

x3
E--------------------------------------------------|------------------------------------------------------------------------
B----------------11-------------8-8-------------|--------------------------8-8---------------------------------------
G------------8--------------8----------10--8--7-|--------------8-------8----------------------------------------------
D---10--10------------10------------------------|---10----10------10------------------------------------------------------
A-------------------------------------------------|-------8--------------------------------------------------------------
E-------------------------------------------------|-----------------------------------------------------------------------

Verse 2: same as verse 1
Here we are - we've just begun
And after all this time - our time has come
Ya here we are - still goin' strong
Right here in the place where we belong

(Chorus)

Solo:

D G
E--11--13--11---11--13--11--|--11--13--11---11--13--11--|--11--13--11---11--13--11--|--11--13--11---11--13--11-
B--11--11--11---11--11--11--|--11--11--11---11--11--11--|--11--11--11---11--11--11--|--11--11--11---11--11--11-
G--x----x---x-----x---x----x---|--x----x---x-----x---x----x---|--1----1---1----1---1----1---|--1----1---1----1---1----1-
D--1----1---1----1---1----1---|--1----1---1----1---1----1---|--x----x---x-----x---x----x---|--x----x---x-----x---x----x-
A--x----x---x-----x---x----x---|--x----x---x-----x---x----x---|--11--11--11---11--11--11--|--11--11--11---11--11--11-
E--11--11--11---11--11--11--|--11--11--11---11--11--11--|-------------------------------|-------------------------------

Bm G
E--11--13--11---11--13--11--|--11--13--11---11--13--11--|--11--13--11---11--13--11--|--11--13--11---11--13--11-
B--11--11--11---11--11--11--|--11--11--11---11--11--11--|--11--11--11---11--11--11--|--11--11--11---11--11--11-
G--x----x---x-----x---x----x---|--x----x---x-----x---x----x---|--x----x---x-----x---x----x---|--x----x---x-----x---x----x-
D-10---10--10---10-10---10--|--10---10--10---10-10--10--|--1----1---1----1---1----1---|--1----1---1----1---1----1-
A-------------------------------|-------------------------------|--x----x---x-----x---x----x---|--x----x---x-----x---x----x-
E-------------------------------|-------------------------------|--11--11--11---11--11--11--|--11--11--11---11--11--11-

same chords as chorus:

E--11-11--11----11-----11/13-13-13-13--11-x-11-11-----------x-x--8-8--8--6-6--8-8-8\6--6-6--6-6-6-6----------
B--11-11-----11----11--11/13-13-13-13--11-x-11-11-----11\---x-x--8-8--8--6-6--8-8-8\6--6-6--6-6-6-6------------
G----------------------------------------------------------8--------------------------------------------------------------
D--------------------------------------------------------------------------------------------------------------------------
A--------------------------------------------------------------------------------------------------------------------------
E--------------------------------------------------------------------------------------------------------------------------

E---------------------------------------------------------------------------------------------------------------------------
B----------------------------------------------------------------------------8-8-10--8-8-10--8-10-8-10----------------
G--8/10-10-10-10-10--8-8--------8--10/12-12-12-12--10-10-10--8-8---8-8-8---8-8-8----8-8--8-8------------------
D--8/10-10-10-10-10--8-8--8h10------------------------------------------------------------------------------------------
A--------------------------------------------------------------------------------------------------------------------------
E--------------------------------------------------------------------------------------------------------------------------

(Verse 1)

(Chorus x2)

Outro: same chords as chorus

Here I am - next to you
And suddenly the world is all brand new
Here I am - where I'm gonna stay
Now there's nothin standin in our way
Here I am - this is me

OptimusPrime

Submitted by OptimusPrime at Sun 01 Dec, 2002 8:28 am

Author: ?
Composer: ?
Publisher: ?
Language: English
Available on: Ultimate (2017)

Reactions

CommonCrawl [Bot]

Follow Muzikum