Bryan Adams

Bryan Adams
Summer Of '69 Vers. 4 (Guitar Tab)

Summer of `69 � Bryan Adams

That�s what you play throughout the verses:


D A
|-0-----2-----3---|---2-----0---2---|-----------------|-------------|
|---3-----3-----3-|-----3-----3---3-|-0-----2-----3---|--2---0---2--|
|-----2-----2-----|-2-----2---------|---2-----2-----2-|----2---2---2|
|-0---------------|-----------------|----2-----2------|2----2-------|
|-----------------|-----------------|-0---------------|-------------|
|-----------------|-----------------|-----------------|-------------|


Then, for the part ��oh when I look back now�� and ��standing on your mamas porch��
as well as for the bridge ��man we were killing time�� you follow the same pattern (fingering) only for other chords:

e.g. Bm |-2------2-------2---| x2
|---3-------3------3-|
|-----4--------4-----|
|--------------------|
|-0------------------|
|--------------------|

or A |-0------0-------0---| x2
|---2-------2------2-|
|-----2--------2-----|
|--------------------|
|-0------------------|
|--------------------|

OptimusPrime

Submitted by OptimusPrime at Sun 01 Dec, 2002 8:28 am

Frank Potters

Last updated by Frank Potters at Fri 13 Apr, 2018 7:11 pm

Author: ?
Composer: ?
Publisher: ?
Language: English

Reactions

CommonCrawl [Bot]

Follow Muzikum