Bryan Adams

Bryan Adams
Fits Ya Good (Guitar tab)

Date : Sun, Nov 18, 2001


Song : Fits Ya Good
Artist : Bryan Adams
Album : MTV Unplugged

i just hope the tabbing is correct......and if there is any mistake, then please do correct me.


Chords : E A D G B e

E Maj : 0 2 2 1 0 0
F#7add11 : 0 4 4 3 0 0
A Maj : x 0 2 2 2 0
B MAj : x 2 4 4 4 2


/ : slide
h : hammer on
p : pull off


E F#7add11
Waiting here for the working day to end
E F#7add11
Five o'clock and these walls just move in closer
A
You get home so down and worn out
B
It's understood

F#7add11 E
Fits ya good - (4)


E F#7add11
Was a time you were bringing me down
E F#7add11
But I know it's just the way you live your life


e-------6-7-6--------------------------------------
B-----7-------7----------------7-------------------
G---6-----------6-6h8-6-------6--------------------
D------------------------9-------------------------
A--------------------------------------------------
E--------------------------------------------------


A
But you don't know like I know, baby
B
I did all that I could

F#7add11 E
Now it fits ya good
It fits ya good
Fits ya good
It fits ya good


Solo:

e-------------------------------------------------------------------------------------------
B-------------------------------------------------------------------------------------------
G----------6---8-8-8-8---7/8-8----8p6-------6-----------------------------------------------
D----6-8-9----------------------------9-6/8------8p6---8------------------------------------
A--9----------------------------------------------------------------------------------------
E-------------------------------------------------------------------------------------------


e----------------------------------------------------------------------------6--------------
B--------------------------------------------------------------------------7----------------
G------8-9-9-9-9-9-9-9-9-9-9-9-9-9-9-9---9p8----8------------------------6------------------
D--8/9---------------------------------------11---11-9--9h11-11-11--9-8---------------------
A-------------------------------------------------------------------------------------------
E-------------------------------------------------------------------------------------------


e-------9---------------11-11-11-9-9-9------------9-9-9--12p9----9--------------------------
B--9-11---9-11-11p9--------------------9-9-9----9-------------11----11p9--------------------
G--------------------------------------------11--------------------------11-----------------
D-------------------------------------------------------------------------------------------
A-------------------------------------------------------------------------------------------
E-------------------------------------------------------------------------------------------


e--9-12-11-9----9---------------------------------------------------------------------------
B------------12---12-11-9-11-9----9----------------------------------------------11-11--11--
G------------------------------11---9-11-8-9-----------------------------11---11--------11--
D--------------------------------------------11-8----------------------11---------------11--
A-------------------------------------------------9-11-8-9-8-9p8----------------------------
E-----------------------------------------------------------------11-9----------------------


A
But you don't know , oh no
B
I did all that I could


F#7add11 E
Fits ya good - (4)




Nishant Somani
India.

OptimusPrime

Submitted by OptimusPrime at Sun 01 Dec, 2002 8:28 am

Author: ?
Composer: ?
Publisher: ?
Language: English

Reactions

CommonCrawl [Bot]

Follow Muzikum