311
T And P Combo (Bass tab)

Song:T&P Combo

Artist:311

Album:311

Tabber:T4-TURBO

Intro:
g:---|
d:---|
a:12/|
e:---|
b:---|

Riff 2:
g:---------------------------|
d:----4-4---------2-2--------|
a:--------3-3-4-4------------|
e:3-3-----------------1-1-1-1|
b:---------------------------|

Riff 3:
g:---------------------------------------------------------------|
d:---------------------------------------------------------------|
a:---------------------------------------------------------------|
e:0-1-1-0-1-1-0-1-0-1-1-0-1-1-0-1-0-2-2-0-2-2-0-2-0-2-2-0-2-2-0-2|
b:---------------------------------------------------------------|

Riff 4:
g:---------------------------------|
d:7--------7--------7--------7----9|
a:--7-7--7---7-7--7---7-7--7--7-7--|
e:---------------------------------|
b:---------------------------------|

Riff 5:
g:-----------------------|
d:7----------------------|
a:--7-7--7-7h8-8-8--8h9-9|
e:-----------------------|
b:-----------------------|

Riff 6:This is that insanely fast climb up the strings its really hard
g:------0-1-2-1-0--------------------------------|
d:2-3-4-----------4-3-2-0------------------------|
a:------------------------3-2-0------------------|
e:------------------------------3-0-3-5-3-0-0-3-5|
b:-----------------------------------------------|

Riff 7:
g:-----------------|
d:-----------------|
a:-----------------|
e:3-0-3-5-3-0-0-3-5|
b:-----------------|

Riff 7 (last time)
g:-----------|
d:-----------|
a:-----------|
e:3-0-3-5-3-0|
b:-----------|

Thats it.This is NOT a beginer song(i maid the sad mistake of trying
to figure it out the 2nd week i was playing that was funny)
So unles your gifted with insane bass playing powers only try this
song when you think your more advanced trust me you will NOT get
the first time.

  • T4-TURBO

    Submitted by

    T4-TURBO at Tue 14 May, 2002 6:17 am

  • <
Copyrights
Author: ?
Composer: ?
Publisher: ?
More details
Language: English

Reactions

CommonCrawl [Bot]

Follow Muzikum