Heroes Del Silencio
Z (Guitar tab)

Heroes del Silencio
Z
Heroes del Silencio
El Espiritu del Vino (1993)



Tuning : E A D G B E Time Signature: 4/4

Fig.1
| | | | | | | | | | | | | | | |
|----------------|----------------|----------------|----------------|
|----------------|----------------|----------------|----------------|
|----------0-----|----------0-----|----------0-----|----------0-----|
|------0h2---2---|------0h2---2---|------0h2---2---|------0h2---2---|
|----2-----------|----2-----------|----2-----------|----2-----------|
|0---------------|0---------------|0---------------|0---------------|


| | | | | | | | | | | | | | | |
|----------------|----------------|----------------|----------------|
|0---------------|1---------------|0---------------|----------------|
|----------0-----|----------0-----|----2---0-------|0---------0-----|
|------0h2---2---|------0h2---2---|0-----------4---|0-----0h2---2---|
|----2-----------|----3-----------|----------------|----2-----------|
|----------------|----------------|----------------|----------------|


| | | | | | | | | | | | | | | |
|----------------|----------------|----------------|----------------|
|0---------------|1---------------|0---------------|----------------|
|----------0-----|----------0-----|---2h4p2-0--2---|0---------0-----|
|------0h2---2---|------0h2---2---|0-----------0---|0-----0h2---2---|
|----0-----------|----3-----------|----------------|----2-----------|
|----------------|----------------|----------------|----------------|

Fin Fig.1
| | | | | | | | | | | | | | | |
|----------------|----------------|----------------|----------------|
|0---------------|2---------------|1---------------|----------------|
|----------0-----|----------0-----|----------0-----|2---------0-----|
|------0h2---2---|------0h2---2---|------0h2---2---|0-----0h2---2---|
|----0-----------|----3-----------|----2-----------|----2-----------|
|----------------|----------------|----------------|----------------|


| | | | | | | | | | | | | | | |
|----------------|----------------|----------------|----------------|
|----------------|----------------|3---------------|--------3-------|
|2---------0-----|2---------0-----|2---------------|2-------2-------|
|0-----0h2---2---|0-----0h2---2---|0---------------|0---------------|
|----2-----------|----2-----------|------------0---|------------0---|
|----------------|----------------|----------------|----------------|

a Fig.1
| | | | | | | |
|----------------|----------------|
|3---------------|3---------------|
|2---------------|2---------0-----|
|0---------------|0-----0h2---2---|
|------------0---|----2-----------|
|----------------|----------------|

N.H.
| | | | | | | | | | | | | | | |
|----------------|----------------|----------------|----------------|
|---/5---3---1---|----------------|----------------|----------------|
|2-------2---0---|4---2h4p2p0-----|----------------|----------------|
|0---------------|2-----------2---|0---------------|5-------12------|
|----------------|----------------|----0h2p0-------|5-------12------|
|----------------|----------------|----------3p0---|3---------------|

N.H
| | | |
|----------------|
|----------------|
|12--------------|
|12--------------|
|----------------|
|----------------|

  • Satanas

    Submitted by

    Satanas at Tue 01 Jun, 2004 3:06 pm

  • <
Copyrights
Author: ?
Composer: ?
Publisher: ?

Reactions

CommonCrawl [Bot]

Follow Muzikum