Blasting All Rotten Fuckers

Blasting All Rotten Fuckers
Mouton Noir (Guitar tab)

#
From: syk@nyongwa.montreal.qc.ca (Bruno Lamoureux)

Title: Mouton Noir
Group: Blasting All Rotten Fuckers (B.A.R.F.)
Album: TUMULTE
Wrote by: Plume Latraverse
Transcribe by: Bruno Lamoureux



Heavy Distortion
Rythm A
P.M..... ....... ....... .........
|------------|-----------------------------------------------------------
|------------|-----------------------------------------------------------
|------------|-----------------------------------------------------------
|-7----------|-7-6-5-4-3-----3-4-5-6-7-----7-6-5-4-3-----3-4-5-6-7-------
|-7----------|-7-6-5-4-3-----3-4-5-6-7-----7-6-5-4-3-----3-4-5-6-7-------
|-5----------|-5-4-3-2-1-----1-2-3-4-5-----5-4-3-2-1-----1-2-3-4-5-------


Le monde couraille a gauche a droite....
Rythm B ( 3 fois )
P.M......................................................
|----------------------------------------------------------|-------------
|----------------------------------------------------------|-------------
|----------------------------------------------------------|-------------
|-7-7-7--7-7-7--7-7-7-6-5-4-3--3-3-3--3-3-3--3-3-3-4-5-6-7-|-------------
|-7-7-7--7-7-7--7-7-7-6-5-4-3--3-3-3--3-3-3--3-3-3-4-5-6-7-|-------------
|-5-5-5--5-5-5--5-5-5-4-3-2-1--1-1-1--1-1-1--1-1-1-2-3-4-5-|-------------



Rythm C Rythm A
P.M...................... .......
|----------------------------------------------------|----------|--------
|----------------------------------------------------|----------|--------
|----------------------------------------------------|----------|--------
|-7-7-7--7-7-7--7-7-7-6-5-4-3---------3-4-5-6-7------|----------|--------
|-7-7-7--7-7-7--7-7-7-6-5-4-3---------3-4-5-6-7------|----------|--------
|-5-5-5--5-5-5--5-5-5-4-3-2-1---------1-2-3-4-5------|----------|--------



Rythm B ( 3 times) Rythm C Rythm A Rythm B (2 times)

|---------------------|----------|----------|---------------------|------
|---------------------|----------|----------|---------------------|------
|---------------------|----------|----------|---------------------|------
|---------------------|----------|----------|---------------------|------
|---------------------|----------|----------|---------------------|------
|---------------------|----------|----------|---------------------|------



Rhytm A
P.M..... ....... bend half and release ........
|---------|--------------------------------------------------------------
|---------|-----------------------5--------------------------------------
|---------|-------------------------4(5)---------------------------------
|---------|--7-6-5-4-3---3-4-5-6-----------------------7----7-6-5-4-3----
|---------|--7-6-5-4-3---3-4-5-6-----------------------7----7-6-5-4-3----
|---------|--5-4-3-2-1---1-2-3-4-----------------------5----5-4-3-2-1----




P.M..... End!
|------------------------------------------------------------------------
|------------------------------------------------------------------------
|------------------------------------------------------------------------
|--3-4-5-6-7-------------------------------------------------------------
|--3-4-5-6-7-------------------------------------------------------------
|--1-2-3-4-5-------------------------------------------------------------



|------------------------------------------------------------------------
|------------------------------------------------------------------------
|------------------------------------------------------------------------
|------------------------------------------------------------------------
|------------------------------------------------------------------------
|------------------------------------------------------------------------



--PART.BOUNDARY.902.15145.nyongwa.montreal.qc.ca.782596057.1--

OptimusPrime

Submitted by OptimusPrime at Mon 19 Nov, 2001 10:06 am

Author: ?
Composer: ?
Publisher: ?

Reactions

CommonCrawl [Bot]

Follow Muzikum