Blasting All Rotten Fuckers

Blasting All Rotten Fuckers
Le Petit Poisson (Guitar tab)

#
From: syk@nyongwa.montreal.qc.ca (Bruno Lamoureux)

Title: Le P'tit Poisson
Group: Blasting All Rotten Fuckers (B.A.R.F.)
Album: TUMULTE
Wrote by: Damnation
Transcribe by: Bruno Lamoureux



Le P'tit Poisson (B.A.R.F.)

P.M...................................................................
|------------------------------------------------------------------------
|---------6-5---------------------------4-3------------------------------
|-----5-------5---------5-5-4-------3-------3---------3-3-2--------5-----
|-5-5---5-------5-----5-5-5-5---3-3---3-------3-----3-3-3-3--0-5-5---5---
|-3---------------5-5---------0-1---------------3-3------------3---------
|-----------------3-----------------------------1------------------------



End of the intro
P.M...................................................................
|-------------------------------------------------------|----------------
|-6-5---------------------------4-3---------------------|----------------
|-----5---------5-5-4-------3-------3-------------------|----------------
|-------5-----5-5-5-5---3-3---3-------3-3-3-3-3-3-3-3-3-|----------------
|---------5-5---------0-1---------------3-3-3-3-3-3-3-3-|----------------
|---------3-----------------------------1-1-1-1-1-1-1-1-|----------------


( 2 times )
Distortion
P.M..... . ........ .
|--------------------------------------------|---------------------------
|-----------5-6-------------------3-4--------|---------------------------
|-5--5-5-5----------4-5--3--3-3-3--------2-3-|---------------------------
|-5--5-5-5-------5-------3--3-3-3------3-----|---------------------------
|-3--3-3-3-------5-------1--1-1-1------3-----|---------------------------
|----------------3---------------------1-----|---------------------------


Riff A ( 2 times )


|------------------------|--------------------------------------------|--
|------------------------|--------------------------------------------|--
|-5-----3-----5-----3----|-5--5--5--5-5----------3--3--3--3-3---------|--
|-5--5--3--3--5--5--3--3-|-5--5--5--5-5-5-5-5-5--3--3--3--3-3-3-3-3-3-|--
|-3--5--1--3--3--5--1--3-|-3--3--3--3-3-5-5-5-5--1--1--1--1-1-3-3-3-3-|--
|----3-----1-----3-----1-|--------------3-3-3-3---------------1-1-1-1-|--


Riff A ( 4 times )
Come on, trash donc chez vous....

|--------|----------------------------------|--------------------------|-
|--------|----------------------------------|--------------------------|-
|--------|----------------------------------|--------------------------|-
|--------|----------------------------------|3--3--3-3--3/6-5-5-3-3-2-3|-
|--------|----------------------------------|3--3--3-3--3/6-5-5-3-3-2-3|-
|--------|----------------------------------|1--1--1-1--1/4-3-3-1-1-0-1|-


( 2 times ) Riff A End !


|------------------------------------------|--------|--------------------
|------------------------------------------|--------|--------------------
|-5--5-5-5--5-5--------3--3-3-3--3-3-------|--------|--------------------
|-5--5-5-5--5-5-5-5-5--3--3-3-3--3-3-3-3-3-|--------|--------------------
|-3--3-3-3--3-3-5-5-5--1--1-1-1--1-1-3-3-3-|--------|--------------------
|---------------3-3-3----------------1-1-1-|--------|--------------------



|------------------------------------------------------------------------
|------------------------------------------------------------------------
|------------------------------------------------------------------------
|------------------------------------------------------------------------
|------------------------------------------------------------------------
|------------------------------------------------------------------------




|------------------------------------------------------------------------
|------------------------------------------------------------------------
|------------------------------------------------------------------------
|------------------------------------------------------------------------
|------------------------------------------------------------------------
|------------------------------------------------------------------------




|------------------------------------------------------------------------
|------------------------------------------------------------------------
|------------------------------------------------------------------------
|------------------------------------------------------------------------
|------------------------------------------------------------------------
|------------------------------------------------------------------------



--PART.BOUNDARY.902.15165.nyongwa.montreal.qc.ca.782596147.1--

OptimusPrime

Submitted by OptimusPrime at Mon 19 Nov, 2001 10:06 am

Author: ?
Composer: ?
Publisher: ?
Language: English

Reactions

CommonCrawl [Bot]

Follow Muzikum