Jello Biafra

Jello Biafra
Bad (Guitar tab)

#
Date: Sat, 2 Sep 1995 00:40:22 -0600 (MDT)
From: Rambozo
Subject: Bad by JELLO BIAFRA and Nomeansno


BAD

e-|-------------------------------------------------
B-|-------------------------------------------------
G-|---------------------------------7-7-7-7---------
D-|---------------------------------7-7-7-7-7-7-7-7-
A-|-7-7-8-8-7-7-8-8-7-7-8-8-8-8-8-8-5-5-5-5-7-7-7-7-
E-|-----------------------------------------5-5-5-5-
we're bad.... sooo bad...

e-|-----------------------------------------
B-|-----------------------------------------
G-|-----------------------------------------
D-|-9-9-9-9-9-9-9-9-7-8-9-9-9-9-9-9-9-9-7-8-
A-|-9-9-9-9-9-9-9-9-7-8-9-9-9-9-9-9-9-9-7-8-
E-|-7-7-7-7-7-7-7-7-5-6-7-7-7-7-7-7-7-7-5-6-
we're baaaaaaaaaaaaaaaaaaaaaaaaaaaaaaaaaaaaaaaaaaaaaaad

e-|---------------------------------
B-|---------------------------------
G-|---------7-7-7-7-----------------
D-|-9-9-9-9-7-7-7-7-5-5-5-5-7-7-7-7-
A-|-9-9-9-9-5-5-5-5-5-5-5-5-7-7-7-7-
E-|-7-7-7-7---------3-3-3-3-5-5-5-5-
I feel it in my heart I believe it in my soul...

thats all... transcribed by rambozo jjm@nucleus.com

OptimusPrime

Submitted by OptimusPrime at Mon 19 Nov, 2001 9:50 am

Author: ?
Composer: ?
Publisher: ?
Language: English

Reactions

CommonCrawl [Bot]

Follow Muzikum