Bob Marley

Bob Marley
War Ver 2 (Bass tab)

BOB MARLEY and THE WAILERS

WAR

album: RASTAMAN VIBRATION

INTRO
G ||---------------------------------||
D ||---------------------------------||
A ||---------------------------------||
E ||-6-6---4--4-4----6-6----4--4-4---||



RIFF 1
G ||---------------------------------------------------||
D ||---------------------------------------------------||
A ||-1-1-1-1---------1---------1-1-1-1-----------6--4--||
E ||----------1-4-1-----4-1--------------1-4-1---------||

G ||-------------------------------------||
D ||-------------------------------------||
A ||-1-1-1-1-----------1-1-1-1-----------||
E ||---------4--4-4-------------4--4-4---||




G ||---------------------||
D ||---------------------||
A ||-1-1-1-1---------3-3-||
E ||-----------4-4-------||


WAR
G ||----------------------5--3--||
D ||-----------------3-3--------||
A ||-1-1-1----4-4-4-------------||
E ||----------------------------||


corrections and stuff to:
c.duffy@ireland.com

OptimusPrime

Submitted by OptimusPrime at Sun 01 Dec, 2002 8:33 am

Author: ?
Composer: ?
Publisher: ?
Language: English

Reactions

CommonCrawl [Bot]

Follow Muzikum