Bob Marley

Bob Marley
Sun Is Shining Ver 2 (Bass tab)

Track played:Sun is shining
ARTIS:Bob Marley and the Wailers
Bass played by:Aston Familyman Barett
TABED by:Dean Dawkins kopper@sprint.ca


I,ve tabed the entire song...

x1
G------------------------|
D----7-------------------|
A-----77-----------------|
E---------7--7-----------|

x3
G------------------------|
D------------7-----------|
A----4-7-4-----77--------|
E-----------------7--7---|

x4
G------------------------|
D------------------------|
A----4-7-4-----4-7-4-----|
E-----------3--------333-|

x1
G------------------------|
D------------------------|
A----4-7-4---------------|
E------------------------|


REST

x1
G------------------------|
D----7-------------------|
A-----77-----------------|
E---------7--7-----------|

x1
G------------------------|
D------------7-----------|
A----4-7-4-----77--------|
E-----------------7--7---|


x4
G------------------------|
D------------------------|
A----4-7-4-----4-7-4-----|
E----------3-3-------333-|

x1
G------------------------|
D----7-------------------|
A-----77-----------------|
E---------7--7-----------|


x3
G------------------------|
D------------7-----------|
E----4-7-4-----77--------|
A-----------------7--7---|


x4
G------------------------|
D------------------------|
A----4-7-4-----4-7-4-----|
E----------3-3------3-33-|


x1
G------------------------|
D----7-------------------|
A-----77-----------------|
E---------7--------------|


x3
G------------------------| G----------------------|
D------------7-----------| D---------------7------|
A----4-7-4-----77--------|or A-------4-7-4-----77---|
E-----------------7--7---| E--------------------7-|


x4
G------------------------|
D------------------------|
A----4-7-4-----4-7-4-----|
E----------3-3-------333-|


x1
G------------------------|
D----7-------------------|
A-----77-----------------|
E---------7--7-----------|


x3
G------------------------|
D------------7-----------|
A----4-7-4-----77--------|
E-----------------7--7---|


x4
G------------------------|
D------------------------|
A----4-7-4-----4-7-4-----|
E----------333-------3-3-|


x1
G------------------------|
D----7-------------------|
A-----77-----------------|
E---------7--------------|


x4
G------------------------|
D------------7-----------|
A----4-7-4-----77--------|
E-------------------7----|


x4
G------------------------|
D------------------------|
A----4-7-4----4-7-4------|
E----------3-3------3-33-|


x1
G------------------------|
D----7-------------------|
A-----77-----------------|
E---------7--------------|


x3
G------------------------|
D------------7-----------|
A----4-7-4-----77--------|
E------------------7-7---|


x4
G------------------------|
D------------------------|
A----4-7-4----4-7-4------|
E----------3--------3-33-|


x1
G------------------------|
D----7-------------------|
A-----77-----------------|
E---------7-7------------|


x3
G------------------------|
D------------7-----------|
A----4-7-4-----77--------|
E------------------7-7---|


x1
G------------------------|
D------------------------|
A----4-7-4----4-7-4------|
E---------3-3-------3-33-|


x1
G------------------------|
D------------------------|
A-------------4-7-4------|
E---------3-3--------3---|


x1
G------------------------|
D------------------------|
A----4-7-4----4-7-4------|
E---------3-3-------3-33-|


x1
G------------------------|
D------------------------|
A----4-------------------|
E------------------------|


REST



x1
G------------------------|
D----7-------------------|
A-----77-----------------|
E---------7--------------|


x1
G------------------------|
D------------7-----------|
A----4-7-4-----77--------|
E------------------7-----|


x1
G------------------------|
D----7-------------------|
A-----77-----------------|
E---------7--------------|


x1
G------------------------|
D------------7---------4-|
A----4-7-4-----77--------|
E------------------7-7---|


x4
G------------------------|
D------------------------|
A----4-7-4----4-7-4------|
E----------3--------33---|


x1
G------------------------|
D----7-------------------|
A-----77-----------------|
E---------7--------------|


x2
G------------------------|
D------------7-----------|
A----4-7-4-----77--------|
E------------------7-----|


FADES OUT ON THIS

x1
G------------------------|
D------------7---------4-|
A----4-7-4-----77--------|
E------------------7-7---|


*This is a nice bass line man,just liten to the cd and feel the vibes
and you will be alright, seen...

OptimusPrime

Submitted by OptimusPrime at Sun 01 Dec, 2002 8:32 am

Author: ?
Composer: ?
Publisher: ?
Language: English

Reactions

CommonCrawl [Bot]

Follow Muzikum