Bob Marley

Bob Marley
Rock It Baby Ver 2 (Bass tab)

11:19AM 23/04/2000
BOB MARLEY AND THE WAILERS

ROCK IT BABY

album: CATCH A FIRE

INTRO X2
G ||-------------------------------------------------------------||
D ||-------------------------------------------------------------||
A ||-O-O-4-4----4-5-2-4-------O-O-4-4---4---2-------O------------||
E ||--------------------------------------------4----------------||



VERSE X4
G ||-------------------------------------------------------------||
D ||-------------------------------------------------------------||
A ||-O-O----4-4-----4-5-4--------O-O---4-4------4-2-O------------||
E ||-------------------------------------------------------------||


CHORUS X2
G ||-------------------------------------------------------------||
D ||-------------------------------------------------------------||
A ||-O-4----O--4-4-4-----4-5-4------O-4----O--4-4-4-----4-2-0----||
E ||-------------------------------------------------------------||

BRIDGE
G ||---------------------------|---------------------------------||
D ||---4--7-6-4----------2-4---|-4---7-6-4--------2-4------------||
A ||-------------4-4-----------|-------------4-4-----------------||
E ||---------------------------|---------------------------------||

G ||-4-4-----------------------|-4-4-----------------------------||
D ||---------------------------|---------------------------------||
A ||------2-2-----O-2-2-2------|------2-2----O-2-2-2-------------||
E ||-----------------------2-2-|----------------------2-2--------||

Then..

CHORUS

VERSE

CHORUS

BRIDGE

CHORUS


corrections and stuff to:
c.duffy@ireland.com

OptimusPrime

Submitted by OptimusPrime at Sun 01 Dec, 2002 8:32 am

Author: ?
Composer: ?
Publisher: ?
Language: English

Reactions

CommonCrawl [Bot]

Follow Muzikum