Bob Marley

Bob Marley
Natty Dread Ver 2 (Bass tab)

BOB MARLEY and THE WAILERS

NATTY DREAD

album: NATTY DREAD

INTRO
G ||-----------------------||
D ||-----------------------||
A ||--O2--2--------22-4-4--|| X2
E ||-----------------------||


G ||------------------------------------------------------------||
D ||------------------------------------------------------------||
A ||-------4-4--5-------4-4-5-5------O-5-7-O----------4-4--5-5--||
E ||-5-55-----------55------------5----------2-----55-----------||
Play this the first time then every time
after that play:

G ||---------------------------------------------------------||
D ||---------------------------------------------------------||
A ||-------4-5-------4-4-5-5-------O-5-7-O---------4-4--5-5--||
E ||-5-555--------55------------5----------2----55-----------||


Just before the bridge he plays this:
G ||---------------------------------------------------------||
D ||---------------------------------------------------------||
A ||-------4-5-------4-4-5-5----------4-5----------4-4--5-5--||
E ||-5-555--------55------------5-555-----------55-----------||


Bridge
G ||----------------------------------------------------||
D ||---------------------------------6------------------||
A ||-22222--------22222---------4444-----444-4---444----||
E ||-------2-2-----------2-2----------------------------||

G ||----------------------------------------------------||
D ||----------------------------------7-----------------||
A ||-22222--------22222---------4444------444-4---444---||
E ||-------2-2-----------2-2----------------------------||

corrections and stuff to:
c.duffy@ireland.com

OptimusPrime

Submitted by OptimusPrime at Sun 01 Dec, 2002 8:32 am

Author: ?
Composer: ?
Publisher: ?
Language: English

Reactions

CommonCrawl [Bot]

Follow Muzikum