Vacant Stare
W (Guitar tab)

W.M.F.M.S. by Vacant Stare

tabbed by Danimo, dan_williams79@hotmail.com

This is played in D tuning (D,A,D,G,B,e)

/ - Slide up
" - Hold
^ - Bend

After some feedback.........

e||---------||
B||---------||
G||---------||
D||---------||
A||-/888888-||
D||-/888888-||

e||------------------------------------------||
B||------------------------------------------||
G||------6"--------6"--------6"--------------|| x2
D||------4"--------4"--------4"--------------||
A||-3-00-4"---3-00-4"---3-00-4"---3-00-2-1-0-||
D||-3-00-4"---3-00-4"---3-00-4"---3-00-2-1-0-||

e||-------------------||
B||-------------------||
G||-------------------||
D||-------------------||
A||-2-1-0-2-1-0-2-1-0-||
D||-2-1-0-2-1-0-2-1-0-||

e||--------------------------||
B||--------------------------||
G||--------------------------||
D||--------------------------|| quite a lot
A||-2210-2210-2210-2210-2210-||
D||-2210-2210-2210-2210-2210-||

After this go back to the second riff but play it a bit faster.

After that a few times go play the third slower.

Then....

e||---------------------||
B||---------------------||
G||-------3"--------3^--||
D||---------------------|| x 4
A||-2-1-0-----2-1-0-----||
D||-2-1-0-----2-1-0-----||

e||-------------------------||
B||-------------------------||
G||-------------------------||
D||-------------------------||
A||-2-1-0-2-1-0-2-1-0-1-0-1-||
D||-2-1-0-2-1-0-2-1-0-1-0-1-||


I think thats the whole song, the thing that sounds like a solo
is done on decks (my way of saying i cant be arsed to work it out) :P

Sounds okish to me...... any comments or changes please put them down :)

Copyrights
Author: ?
Composer: ?
Publisher: ?
More details
Language: English

Reactions

CommonCrawl [Bot]

Follow Muzikum