Vision Of Disorder
D (Guitar tab)

Band:Vision of Disorder
tab:D.T.O
tabber:Mike Maddaloni
email:insanebutthead@aol.com

G----------------------------
D--7--7--7--7-7-8------------ X 4
A--5--5--5--5-5-6------------
D-----------------0--3--0-3/5
then it gets heavy
G--7--7--7--7/8--------------
D--7--7--7--7/8--0--3-0-3/5-- X 8
A--5--5--5--5/6--0--3-0-3/5--
D----------------0--3-0-3/5--

riff 2

D-------------5/7-7--765-3-3-0-----5/7-7--765-3-3-5/7------5/7-7-765-330
A-------------3/5-5--765-3-3-0-----3/5-5--765-3-3-3/5------3/5-5-765-330
D----0-0-0-0---------765-3-3-0-0-0--------765-3-3-----0-0-0------765-330
P.M.|-------| P.M.|---| P.M.|--| P.M.|--| P.M.|----|
play this 4 times, but on the last time the progression ends
prematurally(just listen, you'll here it). any way it goes straight into
this

riff 3

G--7--5-8-7--
D--7--5-8-7-- X 2
A--5--3-6-5--
D------------

(bass fill)

riff 4
|----|* |------|
D--0-00000-0-330-503-0-23211-0-000-000--00 note:after the first time
A--0-00000-0-330-503-0-23211-0-000-000--00 its played you you PM the
D--0-00000-0-330-503-0-23211-0-000-000--00 intro 3 times instead of 5
and after that come in
where the star is
play 4 times
riff 5

D-065-043-065-40-5/7-
A-065-043-065-40-3/5- X 4
D-065-043-065-40-----
|--------------|

riff 6 (my personal favorite part to play)

D--8-87---5-5-5-3-3--0--0-01-01-000-01-01
A--8-87---3-3-3-3-3--0--0-01-01-000-01-01 X 2
D--8-87-0-------3-3--0--0-01-01-000-01-01
|----| |--|
then it goes into this:

D--8-8-87-5-3-3-3-1-1
A--6-6-65-5-3-3-3-1-1 one time
D---------5-3-3-3-1-1

the next parts easy but all rthyem, so i'll taype out what it basically is
bridge
D-000-01-01--0-00-01/3-0-00-01-01--0-00-01-3\1
A-000-01-01--0-00-01/3-0-00-01-01--0-00-01-3\1 X 2
D-000-01-01--0-00-01/3-0-00-01-01--0-00-01-3\1
(dont accent the slides at all let them kind of fade)

riff 7

G--567-5-578-5-567-
D--567-5-578-5-567- X 4
A--345-3-356-3-345-
D------------------
one the last one though end its like this

G--578~~~--------
D--578~~~-3~~---
A--356~~~-3~~---
D---------3~~---

then play riff 4
then riff 5
then riff 6
then play the bridge
then riff 2
then play riff 1, only slow it down some, listen for the rythem
then play riff 7

end the sond on a big fat d5

Copyrights
Author: ?
Composer: ?
Publisher: ?
More details
Language: English

Reactions

CommonCrawl [Bot]

Follow Muzikum