Engenheiros Do Hawaii

Engenheiros Do Hawaii
Muros E Grades (Guitar tab)

Music: Muros e Grades
Artist: Engenheiros do Hawaii
�lbum: V�rias Vari�veis
By: Humberto Gessinger / Augusto Licks


This is a famous song of this brazilian rock band.


Tabbed by Andr� Gustavo P. da Silva(agp@digi.com.br)
Natal-RN

Introduction

Bass: e--0-0-0-0-0-0-

Guitar:
E E/G# A F#
e------4-5-5/7----4-5-5/7-5-4-----4/6-6-6-4----------------------------
b----5------------------------7--------------7-5------------------------
g--4--------------------------------------------------2X----------------
d-----------------------------------------------------------------------
a-----------------------------------------------------------------------
E-----------------------------------------------------------------------

E E/G# A F#
Nas grandes cidades do pequeno dia-a-dia
E E/G# A F#
O medo nos leva a tudo, sobretudo a fantasia
C#m B
Ent�o erguemos muros que nos d�o a garantia
F#m A
De que morreremos cheios de uma vida t�o vazia
E E/G# A F#
Nas grandes cidades de um pa�s t�o violento
E E/G# A F#
Os muros e as grades nos protegem de quase tudo
C#m B
Mas o quase tudo quase sempre � quase nada
F# A
E nada nos protege de uma vida sem sentido
E/G# A
Um dia super, uma noite super
E/G# A
Uma vida superficial
E/G# A
Entre as sombras, entre as sobras
F# B
Da nossa escassez
E/G# A
Um dia super, uma noite super
E/G# A
Uma vida superficial
E/G# A
Entre as cobras, entre escombros
F# B
Da nossa solidez

E E/G# A F#
e------4-5-5/7----4-5-5/7-5-4------4-5-5/7-5-4--------------------------
b----5------------------------7----------------7------------------------
g--4--------------------------------------------------------------------
d-----------------------------------------------------------------------
a-----------------------------------------------------------------------
E-----------------------------------------------------------------------
E E/G# A F#
e------4-5-5/7----4-5-5/7-5-4------4-5-5/7-5-4--------------------------
b----5------------------------7----------------7------------------------
g--4-----------------------------------------------5--------------------
d-----------------------------------------------------------------------
a-----------------------------------------------------------------------
E-----------------------------------------------------------------------


E E/G# A F#
Nas grandes cidades de um pa�s t�o irreal
E E/G# B A F#
Os muros e as grades nos protegem de nosso pr�prio mal
C#m B9
Levamos uma vida que n�o nos leva a nada
F#m A
Levamos muito tempo pr� descobrir
C#m
Que n�o � por a�
B
N�o � por nada n�o
F#m
N�o n�o n�o pode ser
A
� claro que n�o �, ser�
E E/G# A F#
Meninos de rua, del�rios de ru�na
E E/G# A F#
Viol�ncia nua e crua, verdade clandestina
C#m B
Del�rios de ru�na delitos e del�cias
F#m A
A viol�ncia travestida faz seu trottoir
C#m B
Em armas de brinquedo, medo de brincar
F#m A
Em an�ncios luminosos, l�minas de barbear
E/G# A
Um dia super, uma noite super
E/G# A
Uma vida superficial
E/G# A
Entre as sombras, entre as sobras
F# B
Da nossa escassez
E/G# A
Um dia super, uma noite super
E/G# A
Uma vida superficial
E/G# A
Entre cobras, entre escombros
G# C#
Da nossa solidez
F# B C#
e------6-7-7/9----7/9-9-7-7-6-6--4-2/4----------------------------------
b----7---------------------------------2--------------------------------
g--6--------------------------------------------------------------------
d-----------------------------------------------------------------------
a-----------------------------------------------------------------------
E-----------------------------------------------------------------------
F# B C#
e------6-7-7/9----9-9-7-7-6-6-4-4---------------------------------------
b----7------------9-9-7-7-6-6-4-4--------------------------------------
g--6--------------------------------------------------------------------
d-----------------------------------------------------------------------
a-----------------------------------------------------------------------
E-----------------------------------------------------------------------


D#m C#
Viver assim � um absurdo, como outro qualquer
G#m B
Como tentar o suic�dio, ou amar uma mulher

D#m C#
Viver assim � um absurdo, como outro qualquer
G# B F#
Como lutar pelo poder, lutar como puder

OptimusPrime

Submitted by OptimusPrime at Sun 01 Dec, 2002 9:42 am

Author: ?
Composer: ?
Publisher: ?
Language: Portuguese

Reactions

CommonCrawl [Bot]

Follow Muzikum