Eon

Eon
It's So Easy (Guitar tab)

eOn
it'so easy
tabbed and submitted by FailAgain FailBetter
mail any comments to: yak.s@libero.it

.:Intro:.
|---x4-|--------x4--|------------x4--|--------x8--|
|------|------------|----------------|------------|
|------|-9999988888-|-7/9999988888/7-|-9999988888-|
|-2--1-|-9999988888-|----------------|-9999988888-|
|-2--1-|-7777766666-|----------------|-7777766666-|
|-2--1-|------------|----------------|------------|
|-pm-| with delay |---pm----|

.:Verse:.
|--------x8--|
|------------|
|-9999988888-|
|-9999988888-|
|-7777766666-|
|------------|

.:Chorus:.
|------------------x4--|
|----------------------|
|----------------------|
|-2-5-6-5---2-5-6-5-xx-|
|-2-5-6-5---2-5-6-5-xx-|
|-2-5-6-5---2-5-6-5-xx-|

Bridge1:
|--------x4--|---------------------------------x2-|
|------------|------------------------------------|
|-9999988888-|-9999988888-------9999988888/16-16--|
|-9999988888-|------------------------------------|
|-7777766666-|-7777766666/10-10-7777766666/14-14--|
|------------|------------------------------------|

.:Chorus:.
with .:Coda:.
|----------------------|
|----------------------|
|----------------------|
|-2-3-2-3-3-2-3-2-9-9--|
|-2-3-2-3-3-2-3-2-9-9--|Let Ring last notes
|-2-3-2-3-3-2-3-2-9-9--|


|---------------x3-|----------------|-----------------|
|------------------|----------------|-----------------|
|------------------|----------------|5/6/5xx-4/5/4xxx-|
|------------------|--------4-4--4-4|5/6/5xx-4/5/4xxx-|
|-3h4p3--2h3p2-xxx-|-3h4p3--2-2--2-2|3/4/3xx-2/3/2xxx-|...continues over the solo...
|------------------|----------------|-----------------|

.....:.::::SOLO::::::..:............grande valerio!

OptimusPrime

Submitted by OptimusPrime at Thu 14 Aug, 2003 4:45 pm

Author: ?
Composer: ?
Publisher: ?
Language: English

Reactions

CommonCrawl [Bot]

Follow Muzikum