Unsinged
G (Guitar tab)

Author/Artist: StRiKin "We changed the name"
Title: Goddess
Album: Run Away
Guitarist: Ryan Warrell & Josh Gray
Transcribed by: Ryan
Email: Blythesfreak85@aol.com
Drop D
-|----------------------------------------------------------------------------
-|----------------------------------------------------------------------------
-|----------------------------------------------------------------------------
-|-----15----15-----14-----14------10------10------9------9------5------5-----
-|--12-----12-----12-----12-------7-------7-------7------7------3------3------
-|12-----12-----12-----12--------7-------7-------7------7------3------3-------


-|----------------------------------------------------------------------------
-|----------------------------------------------------------------------------
-|----------------------------------------------------------------------------
-|--3------3------------------------------------------------------------------
-|-1------1-------------------------------------------------------------------
-|1------1--------------------------------------------------------------------


-|----------------------------------------------------------------------------
-|----------------------------------------------------------------------------
-|----------------------------------------------------------------------------
-|----------------------------------------------------------------------------
-|12---12/9---9/3---3/1-------------------------------------------------------
-|12---12/9---9/3---3/1-------------------------------------------------------


-|----------------------------------------------------------------------------
-|----------------------------------------------------------------------------
-|----------------------------------------------------------------------------
-|----------------------------------------------------------------------------
-|----------------------------------------------------------------------------
-|0035-00035------------------------------------------------------------------


-|----------------------------------------------------------------------------
-|----------------------------------------------------------------------------
-|----------------------------------------------------------------------------
-|----------------------------------------------------------------------------
-|12/-0035-00035--------------------------------------------------------------
-|12/-0035-00035--------------------------------------------------------------

Copyrights
Author: ?
Composer: ?
Publisher: ?

Reactions

CommonCrawl [Bot]

Follow Muzikum