Unsigned
1984 - No Future (Guitar tab)

intro: play 3x
Guitar 1
-------------------------------------
-------------------------------------
-------------------------------------
-------------------------------------
---14-14-14-14-14--12-12--11-11-11---
---12-12-12-12-12--10-10--9--9--9----

Guitar 2
-------------------------------------
-------------------------------------
---14-14-14-14-14--12-12--11-11-11---
---14-14-14-14-14--12-12--11-11-11---
---12-12-12-12-12--10-10--9--9--9----
-------------------------------------

then: play 1x (both guitars)
-------------------------------------
-------------------------------------
-------------------------------------
-------------------------------------
---9-9-9-9-9--11-11-11-11-11---------
---7-7-7-7-7--9--9--9--9--9----------

verse: play 3x
Both Guitars
---------------------------------------------------------------------------
---------------------------------------------------------------------------
---------------------------------------------------------------------------
---------------------------------------------------------------------------
---14-x-x--x-x-14-x-x--x-x-12-x-x--x-x-10-x-x--x-x-11-x-x--x-x-11-x-x--x-x-
---12-x-x--x-x-12-x-x--x-x-10-x-x--x-x-12-x-x--x-x-9--x-x--x-x-9--x-x--x-x-

chorus:
Guitar 1
-------------------------------------
-------------------------------------
-------------------------------------
-------------------------------------
---14-14-14-14-14--12-12--11-11-11---
---12-12-12-12-12--10-10--9--9--9----

Guitar 2
-------------------------------------
-------------------------------------
---14-14-14-14-14--12-12--11-11-11---
---14-14-14-14-14--12-12--11-11-11---
---12-12-12-12-12--10-10--9--9--9----
-------------------------------------

repeat whole thing, from begining... 1x.
then the solo: distorted.

Guitar 1
-------------------------------------------------------------------------
------14--14-----14--14-----12--12-----12--12----11--11------------------
---12-----12--12-----12--10-----10--10-----10--9------9------------------
-------------------------------------------------------------------------
-------------------------------------------------------------------------
-------------------------------------------------------------------------

-------------------------------------------------------------------------
---14----12--11-----14----14----14----14-----12----11--------------------
---12----10--9---12----12----12----12-----10-----9-----------------------
-------------------------------------------------------------------------
-------------------------------------------------------------------------
-------------------------------------------------------------------------

Guitar 2
-------------------------------------
-------------------------------------
-------------------------------------
-------------------------------------
---14-14-14-14-14--12-12--11-11-11---
---12-12-12-12-12--10-10--9--9--9----

-------------------------------------
-------------------------------------
-------------------------------------
-------------------------------------
---14-14-14-14-14--12-12--11-11-11---
---12-12-12-12-12--10-10--9--9--9----

Copyrights
Author: ?
Composer: ?
Publisher: ?
More details
Language: English

Reactions

CommonCrawl [Bot]

Follow Muzikum