Unsigned
10point3 - Master Plan (Guitar tab)

INTRO TUNE:

E|-----------------------------------------------------|
B|-----------------------------------------------------|
G|-----------------------------------------------------|
D|------0-5-4-0-----7-5-4-0-----0-5-4-0-----7-5-4-3----|
A|--5-5---------5-5---------5-5---------5-5------------|
E|-----------------------------------------------------|

PLAY THIS X2

VERSE:

E|-----------------------------------------------------|
B|-----------------------------------------------------|
G|--77777777-99999999----------------------------------|
D|--77777777-99999999-5-5-5-4-4-4---4-5-5-5-4-4-4------|
A|--55555555-77777777-------------5---------------5----|
E|-----------------------------------------------------|

PLAY THIS X4

INTRO TUNE X2

VERSE X4

CHORUS:

E|-------------------------------------------------------|
B|-------------------------------------------------------|
G|--55555555-----------------77777777--------------------|
D|--55555555-5-5-4-4-0-0-0-0-77777777-7-7-5-5-4-4-4-0----|
A|--33333333-----------------55555555--------------------|
E|-------------------------------------------------------|

PLAY THIS X2

INTRO TUNE X2

VERSE X4

CHORUS X2

INTERLUDE:

E|-----------------------------------------|
B|-----------------------------------------|
G|-----------------------------------------|
D|--77777777-55555555-55555555-44444444----|
A|--55555555-77777777-33333333-55555555----|
E|-----------------------------------------|
P.M.-----------------------------------|

PLAY THIS X2, BUT INSTEAD OF PLAYING THE LAST CHORD(4)PLAY(5) AND SLOWLY
(5) (5)
TAKE IT OFF PALM MUTE.

CHORUS X4

END ON:

E|-----------|
B|-----------|
G|--5---7----|
D|--5---7----|
A|--3---5----|
E|-----------|

LET RING.

ENJOY!!!

Copyrights
Author: ?
Composer: ?
Publisher: ?
More details
Language: English

Reactions

CommonCrawl [Bot]

Follow Muzikum