Tiger Army

Tiger Army
F (Bass tab)

Intro | (x2)

G|---|------------------------------------------------------------------------|
D|---|------------------------------------------------------------------------|
A|-0-|-3-3-3-3-3-3-6-6-6-6-6-6-3-3-3-3-3-3-6-6-6-5-4-3------------------------|
E|---|------------------------------------------------------------------------|

Verse

"Everyday..."

G|---------------------------------------------------------------------------------------------|
D|---------------------------------------------------------------------------------------------|
A|6-6-6-6-6-6-3-3-3-3-3-3-6-6-6-6-6-6-5-4-3-3-3-3-3-3-6-6-6-6-6-6-3-3-3-3-3-3-6-6-6-5-4--------|
E|---------------------------------------------------------------------------------------------|

Chorus (X2)

"*** THE WORLD..."

G|---------------------------------------------------------------------------|
D|---------------------------------------------------------------------------|
A|-3-3-3-6-6-6-5-5-5-4-4-4-3-3-3-6-6-6-5-5-5-4-4-4-3-------------------------|
E|---------------------------------------------------------------------------|

Bridge (x2)

G|---------------------------------------------------------------------------|
D|---------------------------------------------------------------------------|
A|-3-3-6-6-3-3-6-5-4---------------------------------------------------------|
E|---------------------------------------------------------------------------|

Solo Towards End(x4)

G|--|--------------------------------------------------------------------------|
D|--|--------------------------------------------------------------------------|
A|3r|-3-3-3-4-3-3-3-5-3-3-3-4-3-3-3-5-3-3-3-4-3-3-3-5-3-3-3-4-3r---------------|
E|--|--------------------------------------------------------------------------|

"C'MON LET'S GO!!"

OptimusPrime

Submitted by OptimusPrime at Thu 14 Aug, 2003 7:31 pm

Author: ?
Composer: ?
Publisher: ?
Language: English

Reactions

CommonCrawl [Bot]

Follow Muzikum