Theme Songs
007 James Bond Theme (Guitar tab)

###############################################################################


###############################################################################

Title: James Bond theme
Tabbed by:Eddie Atkins
Email:john_frusciante_wanna_be@yahoo.com

e|-0-0-0--0-0-0--0-0-0--0-0-0-------|
B|-0-0-0--1-1-1--2-2-2--1-1-1-------|
G|-0-0-0--0-0-0--0-0-0--0-0-0-------|
D|-2-2-2--2-2-2--2-2-2--2-2-2-------|x2
A|-2-2-2--3-3-3--0-0-0--3-3-3-------|
E|-0-0-0----------------------------|

e|--------------------------------------|
B|--------------------------------------|
G|--------------------------------------|
D|---4-4-4-4---------5-5-5-5--4-4-4-----|
A|---4-4-4-4---------5-5-5-5--4-4-4-----|
E|-0-2-2-2-2-0-0-0-0-3-3-3-3--2-2-2-----|

e|--------------------------------------------------|
B|-----------------------------------5--3~--0-------|
G|--------------------------------------------2--4~-|
D|---4-4-4-4---------5-5-5-5--4-3-------------------|
A|---4-4-4-4---------5-5-5-5--4-3-------------------|
E|-0-2-2-2-2-0-0-0-0-3-3-3-3--2-1-0-----------------|

I haven't watched James Bond in awhile, so if I'm wrong please correct me.

Copyrights
Author: ?
Composer: ?
Publisher: ?
More details
Language: English

Reactions

CommonCrawl [Bot]

Follow Muzikum