Theme Song
Happy Birthday (Bass tab)

Happy Birthday bass tab
tabbed by wilza
Since the last guy really made this tab look bad,
I fuigered that I'd better put the right version on.
Nirvana used to play this song at all of their concerts.
Happy Birthday
G-----------------------------------------------------
D-------0-----------0-----------0-----------0---------
A-0-0-0---0---0-0-0---0---0-0-0---0---0-0-0---0-------
E-----------0-----------0-----------0-----------0-----
Hip Hip Horray
G-----------------------------------------------------
D-----------------------------------------------------
A-----5---5-----5---5-----5---5-----------------------
E-3-3-------3-3-------3-3---------5-3-1-1-------------

Copyrights
Author: ?
Composer: ?
Publisher: ?
More details
Language: English

Reactions

CommonCrawl [Bot]

Follow Muzikum