Theme Song
Pink Panther Theme Ver 2 (Bass tab)

SONG: Pink Panther Theme

Hope you like the song; it is really cool on the bass!

G:-------------------------------------------------|
D:-----------------------------3-2------3-1~~ --|
A:--------------2-3------2-3--------2-3-----------|
E:-2-3-4-5~~ -------4-5-------------------------|


G:-------------------------------------------------|
D:-----------------------------3-2------3-5~~ --|
A:--------------2-3------2-3-------2-3-----------|
E:-2-3-4-5~~ -------4-5-------------------------|

That�s It!
Simple, Isn�t it?

TABBED BY: Ciaran S.

Copyrights
Author: ?
Composer: ?
Publisher: ?
More details
Language: English

Reactions

CommonCrawl [Bot]

Follow Muzikum