Theme Song
Old Grand Prix Riff (Bass tab)

Title - Grand Prix (Riff)
Tabbed - D
Contact - Dmountain@hotmail.com

G|--------------------------------------------|
D|--------------------------------------------|
A|-0---0-2-3-2----0-2-------------------------|
E|----------------3------0-0-0-0-0-0-0-0-0-0-0|

G|--------------------------------------------|
D|--------------------------------------------|
A|-0---0-2-3-2----0-2-------------------------|
E|----------------3------0-0-0-0-0-0-0-0-0-0-0|

G|--------------------------------------------|
D|--------------------------------------------|
A|-0---0-2-3-2----0-2-------------------------|
E|----------------3------0-0-0-0-0-0-0-0-0-0-0|

Tabbed by D this is the Old Version of the tune , its not Metal but its quite a riff!

Copyrights
Author: ?
Composer: ?
Publisher: ?
More details
Language: English

Reactions

CommonCrawl [Bot]

Follow Muzikum