Theme Song
Happy Birthday To You (Bass tab)

Of course, you only play it once but i had to do this to make it long enough.
Please rate it.


G ---------------------------------------7--5--3--2--0---5--5-4--0--2--0
D -----------------------------5-3--------------------------------------
A 3--3-5--3--8--7---3--3-5--3-------3--3--------------------------------
E ----------------------------------------------------------------------

G ---------------------------------------7--5--3--2--0---5--5-4--0--2--0
D -----------------------------5-3--------------------------------------
A 3--3-5--3--8--7---3--3-5--3-------3--3--------------------------------
E ----------------------------------------------------------------------

G ---------------------------------------7--5--3--2--0---5--5-4--0--2--0
D -----------------------------5-3--------------------------------------
A 3--3-5--3--8--7---3--3-5--3-------3--3--------------------------------
E ----------------------------------------------------------------------

G ---------------------------------------7--5--3--2--0---5--5-4--0--2--0
D -----------------------------5-3--------------------------------------
A 3--3-5--3--8--7---3--3-5--3-------3--3--------------------------------
E ----------------------------------------------------------------------

G ---------------------------------------7--5--3--2--0---5--5-4--0--2--0
D -----------------------------5-3--------------------------------------
A 3--3-5--3--8--7---3--3-5--3-------3--3--------------------------------
E ----------------------------------------------------------------------

G ---------------------------------------7--5--3--2--0---5--5-4--0--2--0
D -----------------------------5-3--------------------------------------
A 3--3-5--3--8--7---3--3-5--3-------3--3--------------------------------
E ----------------------------------------------------------------------

Copyrights
Author: ?
Composer: ?
Publisher: ?
More details
Language: English

Reactions

CommonCrawl [Bot]

Follow Muzikum