Theme Song
Barney Theme (Bass tab)

OK This sounds lame but, I tabbed the barney song, because i had an idea for a song and no one had it so i sat down and did it, its really easy this is in the key of G

G ------------------------------------
D 0--0-0--0--2--------------0---------
A -2--2-------3-2-0-2-3--2-3----------
E --------------------------3--3--3--3



G --------------------------
D ---------0-0--------------
A ---0-2-3------0-0--3-2-0--
E -3-----------------------3

Copyrights
Author: ?
Composer: ?
Publisher: ?
More details
Language: English

Reactions

CommonCrawl [Bot]

Follow Muzikum