Theme
007 Themesong (real Way) (Guitar tab)

e-------------0---0---0
b------------0---0---0-
g-----------4---5---6--
d----------------------
a----------------------
e----------------------



e-----------------------------
b-----------------------------
g-----------------------------
d-----------------------------
a-----------------------------
e--0-2-2-2-0-0-0-0-3-3-3-2-2-2




e------------12---11-8
b-----------8---12----
g----------9----------
d---------------------
a---------------------
e---------------------

Copyrights
Author: ?
Composer: ?
Publisher: ?

Reactions

CommonCrawl [Bot]

Follow Muzikum