The Flys

The Flys
Got You Where I Want You Ver 2 (Guitar tab)

Artist: The Flys
Song: Got You (Where I Want You)
Tabbed by: John Leadman



This song proves that all you need to make a great song is two chords
and two riffs.

CHORDS:


E (022100)
A (x02220)


INTRO:

RIFF 1: [also used in the verses]

E A
E|----------------------------------------------------|
B|----------------------------------------------------|
G|----------------------------------------------------|
D|---------------------------6h7-7--7----7---7-7--7---|
A|------7--6--7-----7--6--7--0---0--0--0---0---0--0---|
E|---0-----------0------------------------------------|


VERSE 1: [play with RIFF 1]

E A E A
Hey, what's the point of this?

E A E A
Oh hey, what's your favorite song, maybe we could hum along

E A
Well, I think you're smart, you sweet thing

E A
Tell me your name, I'm dying here


CHORUS:

E A
Ah oooooooooooooh

E A
Got you where I want you, yeah yeah

E A
Ah oooooooooooooh

E A
Got you where I want you, yeah



VERSE 2: [play like verse 1]

Hey, maybe just a smile
Oh hey, did you know that I can dance, could we talk for a while?
Well, I think you're smart, you sweet thing
Tell me your sign, I'm dying here


CHORUS: [play like first chorus]

Ah oooooooooooooh
Got you where I want you, yeah
Ah oooooooooooooh
Got you where I want you, where I want you, I want you


[In the bridge you play this:]

RIFF 2:
E A
E|----------------------------------------------------------------|
B|----------------------------------------------------------------|
G|----------------------------------------------------------------|
D|----------------------------------------------------------------|
A|------11-9-11-9-11-9-11---11-9-11-9-11-9--7--7-7-7--7--7--7--7--|
E|--0---0--0-0--0-0--0-0----0--0-0--0-0--0--5--5-5-5--5--5--5--5--|

BRIDGE:

E
Suffer, suffer, it don't get no rougher

A
Rockin' the baby girl jojo me like no other

E
Suffer, suffer, it don't get no rougher

A
When they rock me baby put the thing on the lover


VERSE 3: [play with RIFF 1]

E A
I think you're smart, you sweet thing

E A
Tell me your name, I'm dying here


CHORUS:

E A
Ah oooooooooooooh

E A
Got you where I want you, yeah

E A
Got you where I want you, yeah

E A
Got you where I want you, want you, want you, yeah


[keep singing something like that with chords 'E A' till end]


Here's what you can sometimes hear the bass play
in the last chorus:

G|---------------------------------------------|
D|---------------------------------------------|
A|-------11-9-11-9-11-9-11---11-9-11-9-11-9-7--|
E|--0------------------------------------------|

OptimusPrime

Submitted by OptimusPrime at Sun 01 Dec, 2002 9:54 am

Author: ?
Composer: ?
Publisher: ?
Language: English

Reactions

CommonCrawl [Bot]

Follow Muzikum