The Dillinger Escape Plan

The Dillinger Escape Plan
The Mullet Burden (Guitar tab)

Title-The Mullet Burden
Artist-The Dillinger Escape Plan
Album-Self Titled

Tabbed by Jesse Zuretti
Email= Solidskies@aol.com AIM s/n=XZaoXFJLX


Part 1 (one)

E ------15---
B 17-18----18
G ----------- x 4
D -----------
A -----------
E -----------

Part 2 (two)

E 15-15-1515-15-15-1515-15-15-15-1717-16-1616-19-19-20-2020-20-20
B 17-17-1717-17-17-1717-17-17-17-1717-17-1717-17-17-17-1717-17-17
G ---------------------------------------------------------------
D ---------------------------------------------------------------
A ---------------------------------------------------------------
E ---------------------------------------------------------------

Part 3 (three)

E ------------------------------------------------------------------------------
B ------------------------------------------------------------------------------
G ---------------------------------8666966686669--------------------------------
D 3-3-33-3-33-3-33-3-3-3-3-33-3-33--------------3-3-33-3-33-3-33-3-3-3-3-33-3-33
A 2-2-22-2-22-2-22-2-2-2-2-22-2-22--------------2-2-22-2-22-2-22-2-2-2-2-22-2-22
E 1-1-11-1-11-1-11-1-1-1-1-11-1-11--------------1-1-11-1-11-1-11-1-1-1-1-11-1-11

Part 4

E ---------------
B ---------------
G ---------------
D 3------3------3
A 2------2------2
E 1------1------1

Part 3 (three)

then Part 4 (four) plus:

E --------
B --------
G --------
D 3------3
A 2------2
E 1------1

Then the scream part

Part 5 (five)

E -------------------------------------------------------------
B -------------------------------------------------------------
G -----------------------------------------------------7-10-6-9
D --------5-4-------------6-9----------------------6-9---------
A --4-5---4-3---4-5---5-8----------------4-5---5-8-------------
E 0-2-3-0-----0-2-3-0---------00223300-0-2-3-0-----------------

E ----------------------------
B ----------------------------
G ----------------------------
D --------5-4-------------6-9- x 3
A --4-5---4-3---4-5---5-8-----
E 0-2-3-0-----0-2-3-0---------

E --------------------------------------------------------------
B --------------------------------------------------------------
G ----------------7-10-6-9-9 9 9 9 9 9 9 9 9 9 9 9 9
D ------------6-9---------11 11 11 11 11 11 11 11 11 11 11 11 11
A --4-5---5-8---------------------------------------------------
E 0-2-3-0-------------------------------------------------------

Part 6 (six) Guitar 1 (one) (Play guitar 2 when you hit the first jazz chord on guitar 1's part)

E ---------------------------------------------------------
B ---------------------------------------------------------
G --------------1------1------7------9------10-----12------
D --------------1------2------4------9------10-----12------
A --------------3------4------5------7------8------10------
E 5------4-------------------------------------------------
* right there start in guitar 2

Part 6 (six) Guitar 2 (two) Put your humbucker switch all the way to the bridge to give it a warm tone

E -------------------------------------------------------------
B -------------14-11-10-8-15-11-10-8---------14-11-10-8--------
G -------------------------------------8---9--------------8---9
D -----------------------------------8---9--------------8---9--
A -------------------------------------------------------------
E -------------------------------------------------------------

Part 7 (seven)

E ------------------------------------------------------------------------------
B ------------------------------------------------------------------------------
G ------------------------------------------------------------------------------
D 7-7-------7-7-77-7-------7-7-77-7-------7-7-77-7-------7-7-77-7-------7-7-77-7
A 6-6-------6-6-66-6-------6-6-66-6-------6-6-66-6-------6-6-66-6-------6-6-66-6
E 5---------5-5-55-5-------5-5-55-5-------5-5-55-5-------5-5-55-5-------5-5-55-5

Here comes the best part-The Carnival Type Noise

Part 8 (eight) Guitar 1 (one)

E 12-11-1011109-10-989-
B ---------------------
G ---------------------
D ---------------------
A ---------------------
E ---------------------

Part 8 (eight) Guitar 2 (two)

E ---------------------
B ---------------------
G ---------------------
D 6--5---4543----4-323-
A ---------------------
E ---------------------

Part 9 (nine) SCALES!!!

E -----------14151617161514--------
B ---14151617--------------17161514
G 17-------------------------------
D ---------------------------------
A ---------------------------------
E ---------------------------------

Part 9 (nine) SCALES Pt. 2!!!

E ---------------------------------
B ---------------------------------
G -------------------------4-5-6-7-
D -----------------3-4-5-6---------
A ---------2-3-4-5-----------------
E 1--2-3-4-------------------------

Part 3 (three) repeats twice (2 times)

OptimusPrime

Submitted by OptimusPrime at Thu 14 Aug, 2003 7:21 pm

Author: ?
Composer: ?
Publisher: Relapse Records, Inc.
Published in: 1998
Language: English
Available on: Calculating Infinity (1999)

Reactions

CommonCrawl [Bot]

Follow Muzikum