The Dillinger Escape Plan

The Dillinger Escape Plan
Proceed With Caution (Guitar tab)

"Proceed With Caution"


Top: (Right Channel) - [Lots of flanger, played very loosely]
Bottom: (Left Channel) - [Played very loosely]

|----------------|----------------|----------------|----------------|
|0---------------|----------------|----------------|----------------|
|0---------------|----------0-----|0---------------|----------------|
|0---------------|----------------|0---------------|----------------|
|3---------------|-------3-----3--|3-------3-5-5b--|5b--5b--5-3-----|
|5---------------|----5----------5|4-----4---------|------------5-0-|
| | | | |
|----------------|----------------|----------------|----------------|
|0---------------|----------------|----------------|----------------|
|0---------------|----------0-----|0---------------|----------------|
|0---------------|----------------|0---------------|----------------|
|3---------------|-------3-----3--|3-------3-5-5---|5br-5br-5-3-----|
|5---------------|----5----------5|4-----4---------|------------5-0-|



|----------------|----0-----------|----------------|----------------|
|----------------|-------0--------|----------------|----------------|
|----------------|----------0-----|0---------------|----------------|
|----------------|-------------0--|0---------------|----------------|
|3---------------|---------------0|3-----3-3---3-0-|/3----3-3---3---|
|5---------------|----------------|4-----4-4---4-0-|/4----4-4---4-0-|
| | | | |
|----------------|----------------|----------------|----------------|
|----------------|----------------|----------------|----------------|
|0---------------|----------0-----|0---------------|----------------|
|0---------------|----------------|0---------------|----------------|
|3---------------|-------3-----3-3|3-----3-3---3-0-|/3----3-3---3---|
|5---------------|----5--------5-5|4-----4-4---4-0-|/4----4-4---4-0-|



|----------------|----------------|----------------|-----------------|
|0---------------|----------------|----------------|-----------------|
|0---------------|----------------|----------------|-----------------|
|0---------------|----------------|0---------------|-----------------|
|3---------------|-/5-5-5-6-5-653-|3-----3-3---3-0-|/3-3-3---3---3-0-|
|5---------------|----------------|4-----4-4---4-0-|/4-4-4---4---4-0-|
| | | | |
|----------------|----------------|----------------|-----------------|
|0---------------|----------------|----------------|-----------------|
|0---------------|----------------|----------------|-----------------|
|0---------------|----------------|0---------------|-----------------|
|3---------------|-/5-5-5-5b-5-3--|3-----3-3---3-0-|/3-3-3---3---3-0-|
|5---------------|----------------|4-----4-4---4-0-|/4-4-4---4---4-0-|



|----------------|----------------|----------------|----------------|
|----------------|----------------|----------------|----------------|
|0---------------|----------0-----|----------------|----------------|
|0---------------|----------------|----------------|----------------|
|3---------------|-------3-----3-3|3---------------|----------3-3---|
|5---------------|----5--------5-5|4---------------|----------4-4---|
| | | | |
|----------------|----------0-----|----------------|----------------|
|----------------|-------------0--|----------------|----------------|
|----------------|---------------0|0---------------|----------------|
|----------------|----------------|0---------------|----------------|
|3---------------|----------------|3---------------|----------3-3---|
|5---------------|----------------|4---------------|----------4-4---|



|----------------|----------------|----------------|----------------|
|----------------|----------------|----------------|----------------|
|----------------|----------------|----------------|----------------|
|----------------|----------------|----------------|----------------|
|3-xxxxxx3-xxxxxx|3-xxxxxx3-xxxxxx|3-xxxxxx3-xxxxxx|3-xxxxxx3-xxxxxx|
|5-xxxxxx5-xxxxxx|5-xxxxxx5-xxxxxx|4-xxxxxx4-xxxxxx|4-xxxxxx4-xxxxxx|
| | | | |
|----------------|----------------|----------------|----------------|
|----------------|----------------|----------------|----------------|
|----------------|----------------|----------------|----------------|
|----------------|----------------|----------------|----------------|
|3--3--3-3--3--3-|3--3--3-3--3--3-|3--3--3-3--3--3-|3--3--3-3--3--3-|
|5--5--5-5--5--5-|5--5--5-5--5--5-|4--4--4-4--4--4-|4--4--4-4--4--4-|



|----------------|----------------|----------------|----------------|
|----------------|----------------|----------------|----------------|
|----------------|----------------|----------------|----------------|
|----------------|----------------|----------------|----------------|
|3-xxxxxx3-xxxxxx|3-xxxxxx3-xxxxxx|3-xxxxxx3-xxxxxx|3-xxxxxx3-xxxxxx|
|5-xxxxxx5-xxxxxx|5-xxxxxx5-xxxxxx|4-xxxxxx4-xxxxxx|4-xxxxxx4-xxxxxx|
| | | | |
|----------------|----------------|----------------|----------------|
|----------------|----------------|----------------|----------------|
|----------------|----------------|----------------|----------------|
|----------------|----------------|----------------|----------------|
|3--3--3-3--3--3-|3--3--3-3--3--3-|3--3--3-3--3--3-|3--3--3-3--3--3-|
|5--5--5-5--5--5-|5--5--5-5--5--5-|4--4--4-4--4--4-|4--4--4-4--4--4-|




|----------------|----------------|----------------|----------------|
|----------------|----------------|----------------|----------------|
|----------------|----------------|----------------|----------------|
|----------------|----------------|----------------|----------------|
|3-xxxxxx3-xxxxxx|3-xxxxxx3-xxxxxx|3-xxxxxx3-xxxxxx|3-xxxxxx3-xxxxxx|
|5-xxxxxx5-xxxxxx|5-xxxxxx5-xxxxxx|4-xxxxxx4-xxxxxx|4-xxxxxx4-xxxxxx|
| | | | |
|----------------|----------------|----------------|----------------|
|----------------|----------------|----------------|----------------|
|----------------|----------------|----------------|----------------|
|----------------|----------------|----------------|----------------|
|3--3--3-3--3--3-|3--3--3-3--3--3-|3--3--3-3--3--3-|3--3--3-3--3--3-|
|5--5--5-5--5--5-|5--5--5-5--5--5-|4--4--4-4--4--4-|4--4--4-4--4--4-|



(gradually get louder)
|----------------|----------------|----------------|----------------|
|----------------|----------------|----------------|----------------|
|----------------|----------------|----------------|----------------|
|----------------|----------------|----------------|----------------|
|3-xxxxxx3-xxxxxx|3-xxxxxx3-xxxxxx|3-xxxxxxxxxxxxxx|xxxxxxxxxxxxxxxx|
|5-xxxxxx5-xxxxxx|5-xxxxxx5-xxxxxx|4-xxxxxxxxxxxxxx|xxxxxxxxxxxxxxxx|
| | | | |
|----------------|----------------|----------------|----------------|
|----------------|----------------|----------------|----------------|
|----------------|----------------|----------------|----------------|
|----------------|----------------|----------------|----------------|
|3--3--3-3--3--3-|3--3--3-3--3--3-|3--3--3-3--3--3-|3--3--3-3--3--3-|
|5--5--5-5--5--5-|5--5--5-5--5--5-|4--4--4-4--4--4-|4--4--4-4--4--4-|




|----------------|---------0------|----------------|----------0------|
|0---------------|------------0---|----------------|-------------0---|
|0---------------|---------------0|----------------|----------------0|
|0---------------|----------------|0---------------|-----------------|
|3---------------|----------------|3---------------|-----------------|
|5---------------|----------------|4---------------|-----------------|
| | | | |
|----------------|----------------|----------------|-----------------|
|0---------------|----------------|----------------|-----------------|
|0---------------|----------------|----------------|-----------------|
|0---------------|----------------|0---------------|-----------------|
|3---------------|-/5-5-5-5b-5-3--|3-----3-3---3-0-|/3-3-3---3---3-0-|
|5---------------|----------------|4-----4-4---4-0-|/4-4-4---4---4-0-|



|----------------|---------0------|----------------|----------------|
|0---------------|------------0---|----------------|----------------|
|0---------------|---------------0|----------------|----------------|
|0---------------|----------------|----------------|----------------|
|3---------------|----------------|3--3--3-3--3--3-|3--3--3-3--3----|
|5---------------|----------------|4--4--4-4--4--4-|4--4--4-4--4----|
| | | | |
|----------------|----------------|----------------|----------------|
|----------------|----------------|----------------|----------------|
|5--5--5-7--7--7-|9--9--9-10-9--7-|5--5--5-5--5--5-|5--5--5-5--5----|
|7--7--7-9--9--9-|10-10-1012-10-9-|6--6--6-6--6--6-|6--6--6-6--6----|
|----------------|----------------|----------------|----------------|
|----------------|----------------|----------------|----------------|

Tab Done By: Jex Masiko
(e-mail: jex@comcast.net)
e-mail me if you need more dillinger stuff

OptimusPrime

Submitted by OptimusPrime at Tue 22 Apr, 2003 11:08 am

Author: ?
Composer: ?
Publisher: Now Or Never Records
Published in: 1997
Language: English

Reactions

CommonCrawl [Bot]

Follow Muzikum