The Dillinger Escape Plan

The Dillinger Escape Plan
Pig Latin (Guitar tab)

Date: Wed, 23 Oct 2002 16:24:02 -0700 (PDT)
From: Richard Guy
Subject: d/dillinger_escape_plan/pig_latin.tab

Dillinger Escape Plan - Pig Latin (album: Irony Is A
Dead Scene)

This is full of mistakes and holes, but there's no DEP
tab out there...
If you've got any suggestions/corrections, let me
know.


Intro PM----|
e|-------------------------|----------4-----------|
B|-------------------------|------------3-4-------|
G|----2----1----3----2-----|----------------1-----|
D|--0---0----0----0----x---|-3-3-3-3--------------|
A|-------------------------|----------------------|
E|-------------------------|----------------------|


0:40 (intro keeps going in background)
|----------------------|--------------------------|
|----------------------|--------------------------| listen to the CD for
|----------------------|--------------------------| the rhythm.
|-7-6--6-6--6-6-8---7--|-10--10-10--10-10---------| I can't write it out.
|-5-5--5-5--5-5-5-5----|-8---8--8---8--8----bah..-|
|----------------------|--------------------------|


1:13
|---------------------|
|o-------------------o|
|--7------------------|
|--6------------------|
|o-5--(5)--(5)--(5)--o| () harmonics
|---------------------|

1:20 is similar to 1:36

1:36
|--------------------|-----------------------------|
|o-------------------|-----------------------------|
|--------------------|-----------------------------|
|--7----6----8-7-6-7-|-----7----6----8-7----(5)----|
|o-5--0-4--0-6-5-4-5-|-0-0-5--0-4--0-6-5--0--------|
|--------------------|-----------------------------|

|-----------------------------------------|
|----------------------------------------o|
|-----------------------------------------|
|-----------7-bah..---------------7-etc..-|
|-8\7\6-6---5--------6-6--8\7\6-6-5------o|
|-6\5\4-4------------4-4--6\5\4-4---------|


That's most of the guitar parts. If you really want to
play the keyboard
parts, the chords aren't tough to figure out.

OptimusPrime

Submitted by OptimusPrime at Sat 16 Nov, 2002 2:21 am

Author: Mike Patton, The Dillinger Escape Plan
Composer: ?
Publisher: Epitaph
Published in: 2002
Language: English

Reactions

CommonCrawl [Bot]

Follow Muzikum