The Descendents
We (Guitar tab)

Song: We
Artist: Descendents
Album: Everything Sucks
Tabbed by: Chucky
Tunning: Standard

Intro

e|---------------------------------------------------------------------------|
B|---------------------------------------------------------------------------|
G|---------------------------------------------------------------------------|
D|--5/7-7-7-7-7-7-7-7-7-7-7-7--9-9--10-10-10-10-10-10-10-10-10-10-10-10------|
A|--5/7-7-7-7-7-7-7-7-7-7-7-7--9-9--10-10-10-10-10-10-10-10-10-10-10-10------|
E|--3/5-5-5-5-5-5-5-5-5-5-5-5--7-7--8--8--8--8--8--8--8--8--8--8--8--8-------|



e|----------------------------------------------------------------|
B|----------------------------------------------------------------|
G|----------------------------------------------------------------|
D|7-7-7-7-7-7-7-7-7-7-7-7-7--5--7-7-7-7-7-7-7-7-7-7-7-7-7--5------|
A|5-5-5-5-5-5-5-5-5-5-5-5-5--3--5-5-5-5-5-5-5-5-5-5-5-5-5--3------|
E|----------------------------------------------------------------|


Verse 1

e|---------------------------------------------------------------------------------------------|
B|---------------------------------------------------------------------------------------------|
G|7-----5--7-----5-----------------------------------------------------------------------------|
D|7-----5--7-----5/7-7-7-7-7-7-7-7-7-7-7-7--9-9-10-10-10-10-10-10-10-10-10-10-10-10-10-10-10-10|
A|5-----3--5-----3/7-7-7-7-7-7-7-7-7-7-7-7--9-9-10-10-10-10-10-10-10-10-10-10-10-10-10-10-10-10|
E|5-----3--5-----3/5-5-5-5-5-5-5-5-5-5-5-5--7-7-8--8--8--8--8--8--8--8--8--8--8--8--8--8--8--8-|


e|-------------------------------------------------------------------------------------|
B|-------------------------------------------------------------------------------------|
G|-------------------------------------------------------------------------------------|
D|12-12-12-12-12-12-12-12-12-12-12-12--12--12-12-12-12-12-12-12-12-12-12-12-12-12-12-12|
A|10-10-10-10-10-10-10-10-10-10-10-10--12--10-10-10-10-10-10-10-10-10-10-10-10-10-12-12|
E|-------------------------------------10----------------------------------------------|


e|-------------------------------------------------------------------------|
B|-------------------------------------------------------------------------|
G|-------------------------------------------------------------------------|
D|7-7-7-7-7-7-7-7-7-7-7-7-7--9-9--10-10-10-10-10-10-10-10-10-10-10-10------|
A|7-7-7-7-7-7-7-7-7-7-7-7-7--9-9--10-10-10-10-10-10-10-10-10-10-10-10------|
E|5-5-5-5-5-5-5-5-5-5-5-5-5--7-7--8--8--8--8--8--8--8--8--8--8--8--8-------|




Chorus playx3

e|-----------------------------------------------------------------|
B|-----------------------------------------------------------------|
G|9-9-9-9-9-9-9-9-7-7-7-7-7-7-7-7-5-5-5-5-5-5-5-5-7-7-7-7-7-7-7-7--|
D|9-9-9-9-9-9-9-9-7-7-7-7-7-7-7-7-5-5-5-5-5-5-5-5-7-7-7-7-7-7-7-7--|
A|7-7-7-7-7-7-7-7-5-5-5-5-5-5-5-5-3-3-3-3-3-3-3-3-5-5-5-5-5-5-5-5--|
E|-----------------------------------------------------------------|


e|-------------------------------|
B|-------------------------------|
G|9-9-9-9-9-9-9-9-7-7-7-7-7-7-7-7|
D|9-9-9-9-9-9-9-9-7-7-7-7-7-7-7-7|
A|7-7-7-7-7-7-7-7-5-5-5-5-5-5-5-5|
E|-------------------------------|


e|-------------------------------------------------------------------------|
B|-------------------------------------------------------------------------|
G|-------------------------------------------------------------------------|
D|7-7-7-7-7-7-7-7-7-7-7-7-7--9-9--10-10-10-10-10-10-10-10-10-10-10-10------|
A|7-7-7-7-7-7-7-7-7-7-7-7-7--9-9--10-10-10-10-10-10-10-10-10-10-10-10------|
E|5-5-5-5-5-5-5-5-5-5-5-5-5--7-7--8--8--8--8--8--8--8--8--8--8--8--8-------|




Verse 2

e|---------------------------------------------------------------------------------------------|
B|---------------------------------------------------------------------------------------------|
G|7-----5--7-----5-----------------------------------------------------------------------------|
D|7-----5--7-----5/7-7-7-7-7-7-7-7-7-7-7-7--9-9-10-10-10-10-10-10-10-10-10-10-10-10-10-10-10-10|
A|5-----3--5-----3/7-7-7-7-7-7-7-7-7-7-7-7--9-9-10-10-10-10-10-10-10-10-10-10-10-10-10-10-10-10|
E|5-----3--5-----3/5-5-5-5-5-5-5-5-5-5-5-5--7-7-8--8--8--8--8--8--8--8--8--8--8--8--8--8--8--8-|


e|-------------------------------------------------------------------------------------|
B|-------------------------------------------------------------------------------------|
G|-------------------------------------------------------------------------------------|
D|12-12-12-12-12-12-12-12-12-12-12-12--12--12-12-12-12-12-12-12-12-12-12-12-12-12-12-12|
A|10-10-10-10-10-10-10-10-10-10-10-10--12--10-10-10-10-10-10-10-10-10-10-10-10-10-12-12|
E|-------------------------------------10----------------------------------------------|


e|-------------------------------------------------------------------------|
B|-------------------------------------------------------------------------|
G|-------------------------------------------------------------------------|
D|7-7-7-7-7-7-7-7-7-7-7-7-7--9-9--10-10-10-10-10-10-10-10-10-10-10-10------|
A|7-7-7-7-7-7-7-7-7-7-7-7-7--9-9--10-10-10-10-10-10-10-10-10-10-10-10------|
E|5-5-5-5-5-5-5-5-5-5-5-5-5--7-7--8--8--8--8--8--8--8--8--8--8--8--8-------|




Chorus playx3

e|-----------------------------------------------------------------|
B|-----------------------------------------------------------------|
G|9-9-9-9-9-9-9-9-7-7-7-7-7-7-7-7-5-5-5-5-5-5-5-5-7-7-7-7-7-7-7-7--|
D|9-9-9-9-9-9-9-9-7-7-7-7-7-7-7-7-5-5-5-5-5-5-5-5-7-7-7-7-7-7-7-7--|
A|7-7-7-7-7-7-7-7-5-5-5-5-5-5-5-5-3-3-3-3-3-3-3-3-5-5-5-5-5-5-5-5--|
E|-----------------------------------------------------------------|


e|-------------------------------|
B|-------------------------------|
G|9-9-9-9-9-9-9-9-7-7-7-7-7-7-7-7|
D|9-9-9-9-9-9-9-9-7-7-7-7-7-7-7-7|
A|7-7-7-7-7-7-7-7-5-5-5-5-5-5-5-5|
E|-------------------------------|


e|-------------------------------------------------------------------------|
B|-------------------------------------------------------------------------|
G|-------------------------------------------------------------------------|
D|7-7-7-7-7-7-7-7-7-7-7-7-7--9-9--10-10-10-10-10-10-10-10-10-10-10-10------|
A|7-7-7-7-7-7-7-7-7-7-7-7-7--9-9--10-10-10-10-10-10-10-10-10-10-10-10------|
E|5-5-5-5-5-5-5-5-5-5-5-5-5--7-7--8--8--8--8--8--8--8--8--8--8--8--8-------|




Solo

e|----------------------------------------------------------------|
B|0-----3p-1p-------0-----3p-1p-3-4-3-5-6-5-----------------------|
G|--0-2-------0-2-----0-2-----------------------------------------|
D|----------------0-----------------------------------------------|
A|----------------------------------------------------------------|
E|----------------------------------------------------------------|



Outro

/----------------------------play4-------------------------\
e|-----------|-----------------------------------------------------------------|
B|-----------|-----------------------------------------------------------------|
G|7-----5--7-|--5---5---5---5--------------------------------------------------|
D|7-----5--7-|--5---5---5---5---5---5---5---5---3-3-3-3-3-3-3-3-3-3-3-3-3-3-3-3|
A|5-----3--5-|--3---3---3---3---5---5---5---5---3-3-3-3-3-3-3-3-3-3-3-3-3-3-3-3|
E|5-----3--5-|------------------3---3---3---3---1-1-1-1-1-1-1-1-1-1-1-1-1-1-1-1|




e|---------|
B|---------|
G|5--------|
D|5---5---3|
A|3---5---3|
E|----3---1|

  • ledhead79

    Submitted by

    ledhead79 at Fri 05 May, 2006 12:13 am

  • <
Copyrights
Author: ?
Composer: ?
Publisher: ?
More details
Language: English

Reactions

CommonCrawl [Bot]

Follow Muzikum