The Descendents
Silly Girl Ver 2 (Guitar tab)

-##

From: Russell.Sweetser%331-106@e-tech.havr.ma.us (Russell Sweetser)
Date: 16 Aug 95 21:29:10 -0500
Subject: TAB: silly_girl.tab

Silly Girl
by the Descendents

Tabbed by Rusty Sweetser
p.s I know the words are wrong. i meant to fix them but didnt have time.
sorry.





Main Riff

----------------------------------------------------------------------
--12/15\12----13/15\13---12/15\12-----17--15--13----------------------
----------------------------------------------------------------------
----------------------------------------------------------------------
----------------------------------------------------------------------
----------------------------------------------------------------------


Song:
G
Started on a summer Sunday
C
Pink dress on the setting sun
G
you were going to Grandma's house
C
I was so scared to go

B
Silly Girl,
C
I'm begging you
G
Tell me all the things that I wanna Do
B C G
Silly girl, I'm in love with you

G
I had wanted to get you
C
you always been so blessed
G
cute little smile and a silly laugh
C
god gave me love at last

B
Silly girl
C
i'm begging you
G
tell me all the things that i wanna do
B C G
Silly girl, i'm in love with you

riff
B C
They said to stay away
B C
right now i wish i had

I'm so in love with you

my silly girl

G
they made me go away
C
sometimes life just isnt fair
G
but ill be back someday
C
i hope you'll still be there

B C
Silly girl, I'm begging you
G
Tell me all the things that I wanna do
B C G
Silly girl i'm in love with you

G
when youre just a silly boy
C
like me alone so scared
G
now i've just had enough
C
i wonder if you ever cared
B
silly girl
C


Date: Mon, 4 Dec 1995 15:49:48 -0700 (MST)
cc: Rambozo
Subject: Silly Girl by the Descendents


main riff
e-|-------------------------|
B-|-------------------------|
G-|-------------------------|
D-|-------------------------|
A-|-2h4-2-3h5-3-2h4-2-7-5-3-|
E-|-------------------------|

verse:
e-|--------------------------------------
B-|--------------------------------------
G-|-----------------5-5-5-5-5-5-5-5-5----
D-|-5-5-5-5-5-5-5-5-5-5-5-5-5-5-5-5-5----
A-|-5-5-5-5-5-5-5-5-3-3-3-3-3-3-3-3-3-etc
E-|-3-3-3-3-3-3-3-3----------------------

chorus:
e-|-------------------------------------------------------------------
B-|-------------------------------------------------------------------
G-|-------------7-7-7-7-7-7-7-7-7-7-7-7-7-7-7-------------------------
D-|-------------7-7-7-7-7-7-7-7-7-7-7-7-7-7-7-------------5-5-5-5-5-5-
A-|-2h4-2-3h5-3-5-5-5-5-5-5-5-5-5-5-5-5-5-5-5-2h4-2-3h5-3-5-5-5-5-etc-
E-|-------------------------------------------------------3-3-3-3-3-3-

transcribed by rambozo jjm@nucleus.com

Copyrights
Author: ?
Composer: ?
Publisher: ?
More details
Language: English

Reactions

CommonCrawl [Bot]

Follow Muzikum