The Descendents
I'm The One (Guitar tab)

Intro
|---------------------------------
|---------------------------------
|-9----8----9----8--8--8--8--8--8-
|-9----8----9----8--8--8--8--8--8-
|-7----6----7----6--6--6--6--6--6-
|---------------------------------
Chorus
|---------------------------------------------
|---------------------------------------------
|-7-7-9-5-5-5-5-5-5-5-12-12-12-12-12-7-7-9-10-
|-7-7-9-5-5-5-5-5-5-5-12-12-12-12-12-7-7-9-10-
|-5-5-7-3-3-3-3-3-3-3-10-10-10-10-10-5-5-7--8-
|---------------------------------------------
|-----------------------------------------------------
|-----------------------------------------------------
|-10-10-10-10-10-10-13-13-13-13-7-7-9-5-5-5-5-5-5-5-3-
|-10-10-10-10-10-10-13-13-13-13-7-7-9-5-5-5-5-5-5-5-3-
|-8--8--8--8--8--8--11-11-11-11-5-5-7-3-3-3-3-3-3-3-1-
|-----------------------------------------------------
|-------------------------------------------
|-------------------------------------------
|-3-3-3-3-7-7-7-9-9-9-9-9-9-9-8-8-8-8-7---9-
|-3-3-3-3-7-7-7-9-9-9-9-9-9-9-8-8-8-8-7---9-
|-1-1-1-1-5-5-5-7-7-7-7-7-7-7-6-6-6-6-5---7-
|-------------------------------------------
Verse
|-----------------------------------------------------------------
|-----------------------------------------------------------------
|-5-5-5-5-5-5-5-5-2-2-2-2-2-2-2-2-5-5-5-5-5-5-5-5-2-2-2-2-2-2-2-2-
|-5-5-5-5-5-5-5-5-2-2-2-2-2-2-2-2-5-5-5-5-5-5-5-5-2-2-2-2-2-2-2-2-
|-3-3-3-3-3-3-3-3-0-0-0-0-0-0-0-0-3-3-3-3-3-3-3-3-0-0-0-0-0-0-0-0-
|-----------------------------------------------------------------

|---------------------
|---------------------
|-5-5-5-5-5-5-4-5-4-2-
|-5-5-5-5-5-5-4-5-4-2-
|-3-3-3-3-3-3-2-3-2-0-
|---------------------
Bridge
|-1---x-1---1-1-1-3---x-3---3-3-3-1---x-1---1-1-1-3---x-3---3-3-3-
|-1---x-1---1-1-1-3---x-3---3-3-3-1---x-1---1-1-1-3---x-3---3-3-3-
|-2---x-2---2-2-2-4---x-4---4-4-4-2---x-2---2-2-2-4---x-4---4-4-4-
|-3---x-3---3-3-3-5---x-5---5-5-5-3---x-3---3-3-3-5---x-5---5-5-5-
|-3---x-3---3-3-3-5---x-5---5-5-5-3---x-3---3-3-3-5---x-5---5-5-5-
|-1---x-1---1-1-1-3---x-3---3-3-3-1---x-1---1-1-1-3---x-3---3-3-3-
|---------------------------------------------------
|---------------------------------------------------
|-10-10-10-10-10-10-10-10-12-12-12-12-12-12-12-12-9-
|-10-10-10-10-10-10-10-10-12-12-12-12-12-12-12-12-9-
|-8--8--8--8--8--8--8--8--10-10-10-10-10-10-10-10-7-
|---------------------------------------------------
|--------------------
|--------------------
|-8--8--8--8--8--8-8-
|-8--8--8--8--8--8-8-
|-6--6--6--6--6--6-6-
|--------------------
|--------------------------------------------------
|--------------------------------------------------
|-4---x-4---4-4-4---4---x-4---4-4-4--2-2-2-2-2-2-2-
|-5---x-5---5-5-5---5---x-5---5-5-5--2-2-2-2-2-2-2-
|-5---x-5---5-5-5---5---x-5---5-5-5--0-0-0-0-0-0-0-
|-3---x-3---3-3-3---3---x-3---3-3-3----------------

|---------------------------------------------------------
|---------------------------------------------------------
|-10-10-10-10-10-10-10-2-2-2-2-2-2-2-10-10-10-10-10-10-10-
|-10-10-10-10-10-10-10-2-2-2-2-2-2-2-10-10-10-10-10-10-10-
|-8--8--8--8--8--8--8--0-0-0-0-0-0-0-8--8--7--7--x--x--8--
|------------------------------------------------10-10-8--
|----------------------------------
|----------------------------------
|-12---12-10---10------------------
|-12---12-10---10--7-7-7-7-7---7-7-
|-10---10-8----8---7-7-7-7-7---7-7-
|-10---10-8----8---5-5-5-5-5---5-5-

  • acidring

    Submitted by

    acidring at Wed 10 Aug, 2005 6:51 pm

  • <
Copyrights
Author: ?
Composer: ?
Publisher: ?
More details
Language: English

Reactions

CommonCrawl [Bot]

Follow Muzikum