The Descendents
Parents (Bass tab)

Here is a bad ass song for bad ass people,it kinda does the same stuff over and over again but its easy to pley, and i can't belive that there are no other song in there by The Descendents...well have fun...

-------------------------------------------------------------------------------------
parents-THE DESCENDENTS
-------------------------------------------------------------------------------------

Intro: X4
G------------------------|
D------9-10-7-9-10-------|
A--7-7-------------------|
E------------------------|

verse: X4
G------------------------|
D------------7-9-10------|
A---7-7-9-10-------------|
E------------------------|

Intro: X4
verse: X4
Intro: X4
Verse: X6

2nd verse: X3
G----------------------|
D------------10-7------|
A---7-7-9-10-----------|
E----------------------|

outro: X4
G----------------------|
D-------9-10-7-9-10----|
A---7-7----------------|
E----------------------|

well there you go...have fun with it...
philip,

Copyrights
Author: ?
Composer: ?
Publisher: ?
More details
Language: English

Reactions

CommonCrawl [Bot]

Follow Muzikum