The Descendents
I Like Food (Bass tab)

VERSE:

G:---------------------------------------------------------------
D:---------------------------------------------------------------
A:---------88--77--------------------------------------------
E:---5555-----------5555--88-7-8---------------------------------


LAST TIME

G:---------------------------------------------------------------
D:---------------------------------------------------------------
A:----------88--77------------------------------------------
E:---5555-----------5555--88-5-7--------------------------------

Copyrights
Author: ?
Composer: ?
Publisher: ?
More details
Language: English

Reactions

CommonCrawl [Bot]

Follow Muzikum