The Descendents
Good Good Things (Bass tab)

I know a place--- up in the air (Verse)
G--------------------------------------------------------------
D--------------------------------------------------------------
A---------------2-3333333333333-2--------------2-333333333333-2
E-5555555555555-------------------5555555555555----------------

Pre Chorus

G-------------------------------------------------------
D-------------------------------------------------------
A-------------------------55-7----------------------55-7
E-1-1111-1-1111-1-1111-555-----555555555555555555555----

G-------------------------------------------------------
D-------------------------------------------------------
A-33333333333333333---55-7--------------------55-7------
E------------------555------11111111111111-555----------

Chorus
G-------------------------------------------------------
D-------------------------------------------------------
A-3333333333333333---55-7--3333333333333333---55-7------
E-----------------555----------------------555----------

G-------------------------------------------------------
D-------------------------------------------------------
A-333333333333---55-7--88888888888888-------------------
E-------------555---------------------------------------

After Chorus
G--------------
D--------------
A-7~-10~-9~-7~-
E--------------

Structure
Verse: 2X
Pre Chorus: 1X
Chorus: 1X
After Chorus: 1X
Verse: 2X
Pre Chorus: 1X
Chorus: 1X
After Chorus: 1X

Copyrights
Author: ?
Composer: ?
Publisher: ?
More details
Language: English

Reactions

CommonCrawl [Bot]

Follow Muzikum