The Descendents
Myage Ver 2 (Guitar tab)

-##
From: HiTopMark@aol.com
Date: Sat, 19 Aug 1995 22:40:22 -0400

"Myage" by the DESCENDENTS

words and music by Bill Stevenson

as heard on the DESCENDENTS New Alliance Recording
"Milo Goes To College"

transcribed by Mark Woodruff

--------------------------------------------------------------------

Intro Figure
N.C.
1 & 2 & 3 & 4 & 1 & 2 & 3 & 4 &
e:------------------------|------------------------|
B:------------------------|------------------------|
G:------------------------|------------------------|
D:---------5--4--4--4--0--|------------------------|
A:5--5--5-----------------|3--3--3--0-----0--3--4--|
E:------------------------|------------3-----------|
(bass arr. for guitar)

(drums & guitar enter Verse Figure w/ Verse #1 Lyrics (x=pick scrape
3rd time & guitar plays D5 C5 w/ L.H. muting)
same notes as bass gtr.) 1 & 2 & 3 & 4 & 1 & 2 & 3 & 4 &
e:------------------------|------------------------|------------------------|
B:------------------------|------------------------|------------------------|
G:------------------------|7--7--7-----------------|7--7--7-----------------|
D:------------------------|7--7--7-----x--x--x--x--|7--7--7-----x--x--x--x--|
A:------------------------|5--5--5-----x--x--x--x--|3--3--3-----x--x--x--x--|
E:------------------------|------------------------|------------------------|
(play 4 times) Almost ready almost there or


D5 C5 D5
etc.
e:------------------------|------------------------|------------------------|
B:------------------------|------------------------|------------------------|
G:7--7--7-----------------|5--5--5-----------------|7--7--7-----------------|
D:7--7--7-----x--x--x--x--|5--5--5-----x--x--x--x--|7--7--7-----x--x--x--x--|
A:5--5--5-----x--x--x--x--|3--3--3-----x--x--x--x--|5--5--5-----x--x--x--x--|
E:------------------------|------------------------|------------------------|
is it already o- ver?(She's a)friend in need (she's a)


C5 D5 C5 G5

e:------------------------|------------------------|------------------------|
B:------------------------|------------------------|------------------------|
G:5--5--5-----------------|7--7--7-----------------|5--5--5--5--------------|
D:5--5--5-----x--x--x--x--|7--7--7-----x--x--x--x--|5--5--5--5--5--5--5--5--|
A:3--3--3-----x--x--x--x--|5--5--5-----x--x--x--x--|3--3--3--3--5--5--5--5--|
E:------------------------|------------------------|------------3--3--3--3--|
friend in- deed (She)needs someone to hold her

Chorus Figure 1 w/ Chorus #1 Lyrics)
D5 C5 C5 D5 D5 C5

e:------------------------|------------------------|------------------------|
B:------------------------|------------------------|------------------------|
G:------------------------|------------------------|------------------------|
D:12-12-12-12-10-10-10----|10-10-10-10-12-12-12----|12-12-12-12-10-10-10----|
A:12-12-12-12-10-10-10----|10-10-10-10-12-12-12----|12-12-12-12-10-10-10----|
E:10-10-10-10-8--8--8-----|8--8--8--8--10-10-10----|10-10-10-10-8--8--8-----|
Alone at night, she plans her game Correctly thinking that


F5 G5 D5

e:------------------------|------------------------|
B:------------------------|------------------------|
G:10----12----------------|------------------------|
D:10----12----12-12-12-12-|------------------------|
A:8-----10----12-12-12-12-|------------------------|
E:------------10-10-10-10-|------------------------|
I'm in pain (play 2 times)

Chorus Figure 2
D5 C5 G5

e:------------------------|------------------------|------------------------|
B:------------------------|------------------------|------------------------|
G:------------------------|------------------------|12-12-12-12-12-12-12-12-|
D:12-12-12-12-12-12-12-12-|10-10-10-10-10-10-10-10-|12-12-12-12-12-12-12-12-|
A:12-12-12-12-12-12-12-12-|10-10-10-10-10-10-10-10-|10-10-10-10-10-10-10-10-|
E:10-10-10-10-10-10-10-10-|8--8--8--8--8--8--8--8--|------------------------|



G5

e:------------------------|
B:------------------------|
G:12-12-12-12-12-12-12-12-|
D:12-12-12-12-12-12-12-12-|
A:10-10-10-10-10-10-10-10-|
E:------------------------|


Chorus Figure 3
D5 D5

e:------------------------|------------------------|------------------------|
B:------------------------|------------------------|------------------------|
G:------------------------|------------------------|------------------------|
D:12-12-12-12-12-12-12-12-|12-12-12-12-12-12-12-12-|10-10-10-10-10-10-10-10-|
A:12-12-12-12-12-12-12-12-|12-12-12-12-12-12-12-12-|10-10-10-10-10-10-10-10-|
E:10-10-10-10-10-10-10-10-|10-10-10-10-10-10-10-10-|8--8--8--8--8--8--8--8--|
She don't need no one She don't




e:------------------------|
B:------------------------|
G:------------------------|
D:10-10-10-10-10-10-10-10-|
A:10-10-10-10-10-10-10-10-|
E:8--8--8--8--8--8--8--8--|
need no one

Intro Figure Verse Figure Chorus Figure 1 w/
Chorus #2 Lyrics

e:------------------------|------------------------|------------------------|
B:------------------------|------------------------|------------------------|
G:------------------------|------------------------|------------------------|
D:------------------------|------------------------|------------------------|
A:------------------------|------------------------|------------------------|
E:------------------------|------------------------|------------------------|
(no lyrics)

Intro Figure Verse Figure w/ Chorus Figure 1 w/
Verse #2 Lyrics) Chorus #3 Lyrics

e:------------------------|------------------------|------------------------|
B:------------------------|------------------------|------------------------|
G:------------------------|------------------------|------------------------|
D:------------------------|------------------------|------------------------|
A:------------------------|------------------------|------------------------|
E:------------------------|------------------------|------------------------|


Chorus Figure 2 Chorus Figure 3


e:------------------------|-------------------------|
B:------------------------|-------------------------|
G:------------------------|-------------------------|
D:------------------------|-------------------------|
A:------------------------|-------------------------|
E:------------------------|-------------------------|
I knew you would

Bridge
Bb Ab Eb

e:------------------------|------------------------|------------------------|
B:------------------------|------------------------|------------------------|
G:------------------------|------------------------|------------------------|
D:8--8--8--8--8--8--8--8--|6--6--6--6--6--6--6--6--|13-13-13-13-13-13-13-13-|
A:8--8--8--8--8--8--8--8--|6--6--6--6--6--6--6--6--|13-13-13-13-13-13-13-13-|
E:6--6--6--6--6--6--6--6--|4--4--4--4--4--4--4--4--|11-11-11-11-11-11-11-11-|



Eb

e:------------------------|
B:------------------------|
G:------------------------|
D:13-13-13-13-13-13-13-13-|
A:13-13-13-13-13-13-13-13-|
E:11-11-11-11-11-11-11-11-|


Chorus Figure 3


e:------------------------|
B:------------------------|
G:------------------------|
D:------------------------|
A:------------------------|
E:------------------------|


Outro
D5

e:------------------------|
B:------------------------|
G:------------------------|
D:12-12-12-12-------------|
A:12-12-12-12-------------|
E:10-10-10-10-------------|
She don't need me


Verse #1

Almost ready, almost there
Or is it already over?
She's a friend in need
She's a friend indeed
She needs someone to hold her

Chorus #1

Alone at night, she plans her game
Correctly thinking that I'm in pain
But every night it's always the same
She be a-fuckin' with my brain

Chorus #2

We all want to play your game with you
We know you're just a starter
But there's no reason for you to quit
Just 'cuz we try harder

Verse #2

I don't want to talk on the telephone
I don't want to see no pictures
She'll find out just what she needs
And when she does I'll get her

Chorus #3

She feels safe when she's with him
'cuz he'll never try anything with her
Well now you know, girl, just what you want
Are you going to let it scare you?

Copyrights
Author: ?
Composer: ?
Publisher: ?
More details
Language: English

Reactions

CommonCrawl [Bot]

Follow Muzikum