The Descendents
Bikeage (Bass tab)

BIKEAGE

Descendents

by: carey overflow [overflow@itol.com]

Notes are played in multiples except for INTRO and 2nd part of CHORUS

INTRO:
G-----12-14-12------12-14-12--------------------
D--14-----------14-----------14-12-10-10--------
A-----------------------------------------------
E-----------------------------------------------

G-----------------------12-14-12----12-14-12--------------
D--10-10---10-10-12--14----------14----------14-12-10-10--
A---------------------------------------------------------
E---------------------------------------------------------

VERSE:
G--------------5-----7-----5----------------------------
D-----3--7--5-----3-----5-----3--7--5-----3-----3--5----
A--3-----------------------------------3-----5----------
E-------------------------------------------------------

CHORUS:
G--------------------
D-----3--2---3--2----
A--3-------3---------
E--------------------

G--------------------------------------------------------------
D----5-7-5---5-7-5----------------------5-7-5---5-7-5----------
A--7-------5-------7--5--3-3---3-3-5-7--------7--------7-5-3-3-
E--------------------------------------------------------------

2ND VERSE:
G---------------------------------------------------------
D--------3--5--------3--5--------3--5------5-----3--5-----
A--3--5--------3--5--------3--5---------3-----5-----------
E---------------------------------------------------------

Copyrights
Author: ?
Composer: ?
Publisher: ?
More details
Language: English

Reactions

CommonCrawl [Bot]

Follow Muzikum