The Descendents
M16 (Bass tab)

From: "gary tomlinson"
Subject: d/descendents/M16.btab
Date: Sun, 17 Feb 2002 23:04:11 +0000


Band: Descendents
Song: M16
Album: Milo Goes To College
Tabbed By: LifeBandit (E-Mail: LifeBandit666@Hotmail.com)

Kinda fast and really nice to play. I think its 100% correct actually.
First tab I`ve done straight off my own back, no assistance.
I`ve not seen it tabbed before so I decided to give it a whirl.


Intro
G|------------------------------|
D|-------------5------------5---|
A|-7-7-7-5-7-7----7-7-7-5-7---7-|
E|------------------------------|

Verse 1 X3
G|-----------------|-------------------|
D|*--------------9*|-------------------|
A|*777777777-888--*|---------5---5-8---|
E|-----------------|-5-5-7-7---7-----7-|

Chorus 1
G|----------------|-----------------|----------------|-----------------|
D|-------------5>-|-----------5-----|----------------|-----------------|
A|-7-7-7-7-7-7----|-7-7-7-7-7---7-r-|-------------5>-|-----------5-----|
E|----------------|-----------------|-7-7-7-7-7-7----|-7-7-7-7-7---7-r-|

G|-----------------|-------------|
D|-----------------|-------------|
A|---------7-7-7-7-|---------5---|
E|-7-7-7-7---------|-7-7-7-4---7-|

2nd Verse X2
G|-----------------|-----------------|-------------------|
D|*---------------*|-------------9---|-------------------|
A|*77777777-888---*|77777777-888-----|---------5---5-8---|
E|--------------7--|-----------------|-5-5-7-7---7-----7-|

2nd Chorus (1 note change again)

G|----------------|-----------------|----------------|-----------------|
D|-------------5>-|-----------5-----|----------------|-----------------|
A|-7-7-7-7-7-7----|-7-7-7-7-7---7-r-|-------------5>-|-----------5-----|
E|----------------|-----------------|-7-7-7-7-7-7----|-7-7-7-7-7---7-r-|

G|-----------------|-------------|
D|-----------------|-------------|Last 2 notes repeat for outro
A|---------7-7-7-7-|---------5-7-|
E|-7-7-7-7---------|-7-7-7-4-----|


Enjoy!

You can post this on any site without asking me 1st as long as my name is
included.
Any Queries or changes E-mail me.

Copyrights
Author: ?
Composer: ?
Publisher: ?
More details
Language: English

Reactions

CommonCrawl [Bot]

Follow Muzikum