The Black Halos

The Black Halos
Somethings Never Fall (Bass tab)

intro
-----------------------
-----------------------
-6-------------6-------
--------6------------6-

-----------------------
-----8888--------------
-6666----6666----------
-------------8888------ 3X

---------------
---------------
---------------
-4-4-44-6-6-66-

verse
--------------------------------------------------------------------
--------------------------------------------------------------------
-6666666666666666---------------------------------------------------
-----------------66666666666666668888888888888888-44444444-66666666- 2X

I don't really wonder why........
----------------------------------
----------------------------------
----------------------------------
-44444444444444446666666666666666- 2X

chorus
------------------------------------------------------------------
------------------------------------------------------------------
-6666666666666666-------------------------------------------------
-----------------666666666666666688888888888888886666666666666666-

------------------------------------------------------------
------------------------------------------------------------
-6666666666666666-------------------------------------------
-----------------66666666666666668888888888888888-4----6----

intro
-----------------------
-----8888--------------
-6666----6666----------
-------------8888------ 3X

---------------
---------------
---------------
-4-4-44-6-6-66-

verse
--------------------------------------------------------------------
--------------------------------------------------------------------
-6666666666666666---------------------------------------------------
-----------------66666666666666668888888888888888-44444444-66666666- 2X

I don't really wonder why........
----------------------------------
----------------------------------
----------------------------------
-44444444444444446666666666666666- 2X

chorus
------------------------------------------------------------------
------------------------------------------------------------------
-6666666666666666-------------------------------------------------
-----------------666666666666666688888888888888886666666666666666-

------------------------------------------------------------
------------------------------------------------------------
-6666666666666666-------------------------------------------
-----------------66666666666666668888888888888888-4----6----

bridge
-----------------------
-----------------------
-6-------------6-------
--------6------------8-

------------------------------------------------------------------
------------------------------------------------------------------
-6666666666666666----------------6666666666666666-----------------
-----------------6666666666666666----------------8888888888888888-

chorus
------------------------------------------------------------------
------------------------------------------------------------------
-6666666666666666-------------------------------------------------
-----------------666666666666666688888888888888886666666666666666-

----------------------------------------------------------------------
----------------------------------------------------------------------
-6666666666666666-----------------------------------------------------
-----------------66666666666666668888888888888888-4444444466666666----

chorus
------------------------------------------------------------------
------------------------------------------------------------------
-6666666666666666-------------------------------------------------
-----------------666666666666666688888888888888886666666666666666-

------------------------------------------------------------
------------------------------------------------------------
-6666666666666666-------------------------------------------
-----------------66666666666666668888888888888888-4----6----

OptimusPrime

Submitted by OptimusPrime at Thu 14 Aug, 2003 7:20 pm

Author: ?
Composer: ?
Publisher: ?
Language: English

Reactions

CommonCrawl [Bot]

Follow Muzikum