Skold
P (Bass tab)

Band: Skold
Title: P.A.M.F.
Album: Skold
Transcribed by: Daniel Neitz
Homepage: http://www.angstmusic.de.vu
Email: stryker@kmfdm-power.de

Main Riff (4X)
G------------------------------------------------------------------------------
D------------------------------------------------------------------------------
A--------------------------------------------------------3-2-0----------------
E-0-0-2-2-2-0-2-2-2-0-2-0-2--0-0-2-2-2-0-2-2-2-0------------------------

Bridge (1X)
G------------------------------------------------------------------------------
D------------------------------------------------------------------------------
A------------------------------------------------------------------------------
E-6-4-------------------------------------------------------------------------

Main Riff (3X)
Bridge (2X)

Chorus (4X)
G------------------------------------------------------------------------------
D------------------------------------------------------------------------------
A-6-3-2-0-2-0----------------------------------------------------------------
E-----------------0-0--0-0--0-0--0-0--0-0-0-0------------------------------

Main Riff (4X)
Bridge (1X)
Chorus (4X)

Fill (3X)
G------------------------------------------------------------------------------
D------------------------------------------------------------------------------
A------------------------------------------------------------------------------
E-0-0--0-0--0-0--0-0--0-0---------------------------------------------------

Main Riff (2X)
Bridge (2X)
Chorus (7X)

Ending (1X)
G------------------------------------------------------------------------------
D------------------------------------------------------------------------------
A-6-3-2-0-2-0----------------------------------------------------------------
E-----------------0-0----------------------------------------------------------
____________________________________________________________
For Corrections or comments mail to stryker@kmfdm-power.de

Copyrights
Author: ?
Composer: ?
Publisher: ?
More details
Language: English

Reactions

CommonCrawl [Bot]

Follow Muzikum