Pepper
B (Bass tab)

B.O.O.T.
By Pepper

Main
#1
G----------------------------------------------
D------------------------6-4-------6-4---------
A----6-4-------6-4-----4-----7---4-----7-------
E--4-----7---4-----7---------------------------
#2
G----------------------------------------------
D-----8-6-------6-4--4h6-----------------------
A--6-------4-4---------------6-4---------------
E--------------------------4-----7-4--0-1-3----
This is the other part, where it just rings...
G----------------------------------------------
D----------------------------------------------
A------4~----6~--4~----------------------------
E--4~----------------4~------------------------

Chorus (short quick punches)
So when the dance get's hot...
G----------------------------------------------
D----------------------------6*----------------
A-----------6*------4*---7*--------------------
E--4*---7*-------------------------------------
Then right back to main #2

Bridge part
G----------------------------------------------
D-----------------------6-4-------6-4----------
A---6-4-------6-4------4---7-4---4---7-4-------
E--4---7-4---4---7-4---------------------------
Then pretty much back to Main #2 again...it's slightly variated though.

And thats the basic jist of it.

Copyrights
Author: ?
Composer: ?
Publisher: ?

Reactions

CommonCrawl [Bot]

Follow Muzikum