PAX217
P (Bass tab)

Song:PSA
BAND pax 217
Tab By:TAD

PART 1
G:-------------------------]
D:-------------------2222--]
A:33--33--33--33--3-0------]
E:--33--33--33--33---------]

PART 2
G:------------]
D:--4444---2--]
A:-5----------]
E:-------3----]

PART 3
G:---------]
D:------2--]
A:-4-0-2---]
E:---------]

PART 4
G:-------]
D:-------]
A:-33----]
E:---33--]

PART 5
G:-----------------]
D:-----------------]
A:----15-17-15-14--]
E:-15--------------]

part 6
G:--------------]
D:--------------]
A:-444-222-000--]
E:--------------]

THATS IT

Copyrights
Author: ?
Composer: ?
Publisher: ?
More details
Language: English

Reactions

CommonCrawl [Bot]

Follow Muzikum