Over It
B-54 (Guitar tab)

-------------------------------------------------------------------------------
B-54 - Over It
--------------------------------------------------------------------------------

By: Gary(gary@finaldesign.net)

* - pinch harmonic
~ - let ring out
/ \ - slide

Intro: (Strumming not defined)
e|---------------------------------------------------------------------------|
B|---------------------------------------------------------------------------|
G|---------------------------------------------------------------------------|
D|8---8---8------------------------------------------------------------------|
A|6---6---6------------------------------------------------------------------|
E|8---6---4------------------------------------------------------------------|

Other Chords Used:
e|---------------------------------------------------------------------------|
B|---------------------------------------------------------------------------|
G|---------------------------------------------------------------------------|
D|10---8---6-----------------------------------------------------------------|
A|10---8---6-----------------------------------------------------------------|
E|-8---6---4-----------------------------------------------------------------|

Octaves Used:
e|---------------------------------------------------------------------------|
B|---------------------------------------------------------------------------|
G|---------------------------------------------------------------------------|
D|8--10--6-------------------------------------------------------------------|
A|x---x--x-------------------------------------------------------------------|
E|6---8--4-------------------------------------------------------------------|

Part Right Before Outro Solo: (1st part is background chord, 2nd is lead part)
e|------|--------------------------------------------------------------------|
B|------|--------------------------------------------------------------------|
G|--8---|---------5h6-5-8~----5h6-5---*--------------------------------------|
D|--8---|---------------8~----------8-6--------------------------------------|
A|--6---|---------------6~---------------------------------------------------|
E|--6---|---------------6~---------------------------------------------------|

Outro Solo Chords: (4x) (End on G#)
e|---------------------------------------------------------------------------|
B|---------------------------------------------------------------------------|
G|----------8----------------------------------------------------------------|
D|-10---8---8---6------------------------------------------------------------|
A|-10---8---6---6------------------------------------------------------------|
E|--8---6---6---4------------------------------------------------------------|

Outro Solo:
e|---------------------------------------------------------------------------|
B|------11-----------------------------------------11------------------------|
G|----8-----8-10-8-10/12-8-10-8-10/12-8-7--------8----8-10-8-10/12-8-10-8----|
D|6/8-------------------------------------8--6/8-----------------------------|
A|---------------------------------------------------------------------------|
E|---------------------------------------------------------------------------|

Outro Solo Cont'd:
e|---------------------------------------------------------------------------|
B|-----------------------11--------------------------------------------------|
G|10/13-12-10-8-*------8-----------------------------------------------------|
D|--------------8--6/8------8-10-8-10/12-8-10-8-10/12-8-7-------8-13-12-10-8~|
A|--------------------------------------------------------8-6/8--------------|
E|---------------------------------------------------------------------------|

Here's a half *** tab. Enjoy.
http://www.geocities.com/ggtabs07
===============================================================================

Copyrights
Author: ?
Composer: ?
Publisher: ?
More details
Language: English

Reactions

CommonCrawl [Bot]

Follow Muzikum