James Bond
007 James Bond Them Song (Guitar tab)

Hey guys this is my first guitar tab so I hope it goes through ok


e-------------------------------------------------------
B------------------------------------------------------
G------------------------------------------------------
D------------------------------------------------------ 2x
A--2---------3-----------4--------------3------------
E------0------------0------------0---------------0---

And then
e---------------------------------------------------------
B--------------------------------------------------------
G--------------------------------------------------------
D-------------------------------------------------------- 4x
A 0--4--4--0-0-0-0--5--5- 4--4--4-------------------
E-0--2--2--0-0-0-0--3--3--2--2--2-------------------

And then the last part is

e-------------------------------------------------------
B--------------------------------------------------------
G-------------------------------------------------------
D--------------------------------------------------------
A--14--12----9-7-9------------------------------------
E--12--10----7- 5-7----------------------------------

Well there it is, I kinda stumbled upon tryin to learn another song. Its not perfect but it sounds really cool when u play it in distortion. Any questions or comments e-mail me at rebprd208@yahoo.com

Copyrights
Author: ?
Composer: ?
Publisher: ?

Reactions

CommonCrawl [Bot]

Follow Muzikum