James Bond
007 Theme Tune Ver 2 (Guitar tab)

I thought i'd put the tab up as all i've seen arn't v. good, so rate comment and play this!.

e-----------------------------
B-----------------------------
G-----------------------------
D-----------------------------
A---2---3---4---3---2---------
E-----0---0---0---0---0------- reapeat 2 times

e-----------------------------
B-----------------------------
G-----------------------------
D-----------------------------
A-----------------------------
E-000h2-2-2-000-3-3-3-3------- reapeat once

e----------------------------------
B--------5--3----------------------
G-----0------0-2-4---0-2-0-4--2----
D--2------------------------2---4--
A----------------------------------
E----------------------------------

e-----------------------------
B-----------------------------
G-----------------------------
D--2-2-2-4-2-4--5-5--5-4-2-4--
A-----------------------------
E----------------------------- x2

e----------------------------
B----------------------------
G----------------------------
D--99-----99-----99--999-----
A----------------------------
E------7------7--------------


e-----------------------------
B-----------------------------
G-----------------------------
D-----------------------------
A---2---3---4---3---2---------
E-----0---0---0---0---0------- reapeat 2 times



and thats it!, easy but effective!!, please correct it if you think its wrong, but i don't think there is any mistakes

thanks
StEvO

Copyrights
Author: ?
Composer: ?
Publisher: ?
More details
Language: English

Reactions

CommonCrawl [Bot]

Follow Muzikum