H20
Thicker Than Water (Guitar tab)

Intro 2x
e|------------------------------------------------------|
B|------------------------------------------------------|
G|--7-7-7-7-7-7-9-10--10-9-7-5-5-5-5-5-5-0-5-5-5-5-5-5--|
D|--7-7-7-7-7-7-9-10--10-9-7-5-5-5-5-5-5-0-5-5-5-5-5-5--|
A|--5-5-5-5-5-5-7--8---8-7-5-3-3-3-3-3-3-0-3-3-3-3-3-3--|
E|------------------------------------------------------|

Verse 4x
e|----------------------|
B|----------------------|
G|--x-5-x-5-x-5-x-5555--|
D|--x-5-x-5-x-5-x-5555--|
A|--x-3-x-3-x-3-x-3333--|
E|----------------------|

Chorus 2x
e|------------------------------------------------------|
B|------------------------------------------------------|
G|--7-7-7-7-7-7-9-10--10-9-7-5-5-5-5-5-5-0-5-5-5-5-5-5--|
D|--7-7-7-7-7-7-9-10--10-9-7-5-5-5-5-5-5-0-5-5-5-5-5-5--|
A|--5-5-5-5-5-5-7--8---8-7-5-3-3-3-3-3-3-0-3-3-3-3-3-3--|
E|------------------------------------------------------|

Verse 4x
e|----------------------|
B|----------------------|
G|--x-5-x-5-x-5-x-5555--|
D|--x-5-x-5-x-5-x-5555--|
A|--x-3-x-3-x-3-x-3333--|
E|----------------------|

Chorus 2x
e|------------------------------------------------------|
B|------------------------------------------------------|
G|--7-7-7-7-7-7-9-10--10-9-7-5-5-5-5-5-5-0-5-5-5-5-5-5--|
D|--7-7-7-7-7-7-9-10--10-9-7-5-5-5-5-5-5-0-5-5-5-5-5-5--|
A|--5-5-5-5-5-5-7--8---8-7-5-3-3-3-3-3-3-0-3-3-3-3-3-3--|
E|------------------------------------------------------|

Bridge
e|------------------------------------------------------|
B|------------------------------------------------------|
G|---------------------------------------5-5-5-5-5-5-7--|
D|-----------------------------5---7-----5-5-5-5-5-5-7--|
A|-----------------------------3---5-----3-3-3-3-3-3-5--|
E|------------------------------------------------------|

Outro 13x
e|----------------------------|
B|----------------------------|
G|--10-9-7-5-5-5-5-5-5-7-7-7--|
D|--10-9-7-5-5-5-5-5-5-7-7-7--|
A|---8-7-5-3-3-3-3-3-3-5-5-5--|
E|----------------------------|

Tabbed by T0xiC AveNgeR

Copyrights
Author: ?
Composer: ?
Publisher: ?

Reactions

CommonCrawl [Bot]

Follow Muzikum